Gross N Go - Mikey Chords & Tabs

 

Mikey Chords & Tabs

Gross N Go Chords & Tabs

Version: 1 Type: Tab 0 ratings
1 star 2 stars 3 stars 4 stars 5 stars
comments

Mikey Tab

This is a sick song by a new upcoming band.

           Gross N’ Go

Intro:                               Repeat 3x
E: -----------------------------------------------l-----------------------------------
B: -----------------------------------------------l-----------------------------------
G: -----------------------------------------------l-----------------------------------
D: -----11-----------9--------7-------------------l-----------------------------------
A: --9------9—---7----7-----5------5----7---------l7—7--------------------------------
 E: ----------------------------------------------l-----------------------------------

Chorus:                                                                     Repeat 2x
E: ----------------------------------------------------------------------------------
B: ----------------------------------------------------------------------------------
G: ----------------------------------------------------------------------------------
D: ------------------------------------------------------------------7-7-7----------
A: --7-7-7-7-7-7-7-7—5-5-5-5-5-5-5-5—4-4-4-4—5-5-5-5—----------------5-5-5----------
E: --5-5-5-5-5-5-5-5—3-3-3-3-3-3-3-3—2-2-2-2—3-3-3-3--------------------------------
[ Tab from: http://www.guitartabs.cc/tabs/g/gross_n_go/mikey_tab.html ]
Verse:                                                                        Repeat 2x
E: ----------------------------------------------------------------------------------
B: ----------------------------------------------------------------------------------
G: ----------------------------------------------------------------------------------
D: ----------------------------------------------------------------------------------
A: --7------5-4--------5-4---------5-4-7-7-7-7---------------------------------------
E: --5-5-7------5-5-7------5-5-7-----------------------------------------------------
Chorus:                                                                        Repeat 2x
E: ----------------------------------------------------------------------------------
B: ----------------------------------------------------------------------------------
G: ----------------------------------------------------------------------------------
D: ------------------------------------------------------------------7-7-7----------
A: --7-7-7-7-7-7-7-7—5-5-5-5-5-5-5-5—4-4-4-4—5-5-5-5—----------------5-5-5----------
E: --5-5-5-5-5-5-5-5—3-3-3-3-3-3-3-3—2-2-2-2—3-3-3-3--------------------------------

Solo:   5x
E: ------l----------------------------------------------------------------------------
B: ------l----------------------------------------------------------------------------
G: ------l-----------5---5-7-------------------------------5-7-7-7-7-5----------------
D: -7-5--l------5-7---7-------5-7-5-7-5-7-5-7-5-7-5-7-----------------7-5-------------
A: -7--- l-5-7-----------------------------------------------------------7-7----------
E: ------l--------------------------------------------------------------------------- 

 
Chorus:                                                                      Repeat 2x
E: ----------------------------------------------------------------------------------
B: ----------------------------------------------------------------------------------
G: ----------------------------------------------------------------------------------
D: ------------------------------------------------------------------7-7-7----------
A: --7-7-7-7-7-7-7-7—5-5-5-5-5-5-5-5—4-4-4-4—5-5-5-5—----------------5-5-5----------
E: --5-5-5-5-5-5-5-5—3-3-3-3-3-3-3-3—2-2-2-2—3-3-3-3--------------------------------

Closing:
E: ----------------------------------------------------------------------------------
B: ----------------------------------------------------------------------------------
G: ----------------------------------------------------------------------------------
D: -----------------------------------------------------------7-7-7------------------
A: -7-7-7-7-7-7-7-7—REST-5-5-5-5-5-5-5-5-REST-4-4-4-4-5-5-5-5-5-5-5-----------------
E: -5-5-5-5-5-5-5-5—REST-3-3-3-3-3-3-3-3-REST-2-2-2-2-3-3-3-3-----------------------
Tabbed by Hunter Gettelfinger
Comments