Groove Coverage - Runaway Chords & Tabs

 

Runaway Chords & Tabs

Groove Coverage Chords & Tabs

Version: 1 Type: Tab 0 ratings
1 star 2 stars 3 stars 4 stars 5 stars
comments

Runaway Tab

Runaway - Groove Coverage
Hi there! I figured this one out. But it may not be 100% correct.

The ... in the verse were necessary for timing reasons

Verse:
e |-------------------------------------|------------------------------------|
H |-------------------------------------|------------------------------------|
G |-----------7--------------7----11----|-11-9-7-------------7---------------|
D |--9--9--11----9--11-11-11---9--------|---------9-11-11-11---9-------------|
A |-------------------------------------|------------------------------------|
E |-------------------------------------|------------------------------------|
     I wanna know  The str...of...heart   Why do..tear my... a-part?
     Is it a dream? Or my reality?        Love comes without 'after warranty'

Chorus:                                              Play \/this\/ only 3 times!!!
e |-------------------------------------------------------------------------------|
H |-------------------------------10----10----------------------------------------|
G |-----11--7--7-9-9-9--7--11--11----11----11--9-7--------(11--9-7)---------------|
D |--9-----------------------------------------------9----------------------------|
A |-------------------------------------------------------------------------------|
E |-------------------------------------------------------------------------------|
     O  O   O  I want to...,   You tell me ...   but lies (I'm singing)
     OoO I try to runaway      Cause I just want to live my life, (I'm singin')
     OoO I want to runaway     As long as you are by my side (I'm singin')
     OoO I try to runaway      But I can't find a place to hide
[ Tab from: http://www.guitartabs.cc/tabs/g/groove_coverage/runaway_tab.html ]
Solo: (play this whole stuff 3 times)
e |---------------------------------------------------------------------------|
H |----------8--8-------------------------------------------------------------|
G |--11--11-------11-9--9--11--11-9-7--7--9--6-7---------------------(7)------|
D |----------------------------------------------9--9--9-(9)(9)-(11)----------|
A |---------------------------------------------------------------------------|
E |---------------------------------------------------------------------------|

e |---------------------------------------------------------------------------|
H |----------8--8-10--------------10------------------------------------------|
G |--11--11----------9--9--11--11-----7--7--9--6-7----------------------------|
D |-------------------------------------------------9--9--9-------------------|
A |---------------------------------------------------------------------------|
E |---------------------------------------------------------------------------|

Verse 2: (same notes as before)

No, I am not you're f*c*i*g second choice
No, I am not turning down my voice
Until you understand there's nothing to command
Until you realize that we can touch the skies

Bridge:
e |--------------------------|-------------------------------------------------|
H |----------8---------------|-------------------------------------------------|
G |--11--11-----9-9-9-9-11---|-7--7--9--6-6-7-6-7------------------------------|
D |--------------------------|---------------------9---------------------------|
A |--------------------------|-------------------------------------------------|
E |--------------------------|-------------------------------------------------|
     Can you feel?... control  Can.. There's... at all

---
Then fade into the Chorus, repeat it, do the solo and thats it!

Have Fun
Jochen, 2005-06-02
Comments