Grinspoon - Undercover Chords & Tabs

 

Undercover Chords & Tabs

Grinspoon Chords & Tabs

Version: 1 Type: Tab 0 ratings
1 star 2 stars 3 stars 4 stars 5 stars
comments

Undercover Tab

#----------------------------------PLEASE NOTE--------------------------------#
#This file is the author's own work and represents their interpretation of the#
#song. You may only use this file for private study, scholarship, or research.#
#-----------------------------------------------------------------------------#
#-- File created with Instab - http://www.pconline.com/~smcarey/instab.html --#
#-----------------------------------------------------------------------------#

Author/Artist: Grinspoon
Title: Undercover (intro)
Album: Easy
Transcribed by: Michael Sleeth
Email: sleeth@optushome.com.au

This is just the intro the rest of the tab can be found at 
http://www.grinspoon.com.au/%7Etablature/guitar/undercover.html
After you play this once it is played with another guitar playing the chorus riff
[ Tab from: http://www.guitartabs.cc/tabs/g/grinspoon/undercover_tab.html ]
------------------------------------------------------------------------------
------------3-------------------3---------------------------------------------
---------5-----5--0----------5-----5--0--------5--0--4h5--5--------5-5-5p4--0-
--5-5------------------------------------2--2----------------3--3-------------
-----------------------3--3---------------------------------------------------
------------------------------------------------------------------------------
                                                                              

------------------------------------------------------------------------------
------------3-----------------------------------------------------------------
---------5-----5--0----------5-5-5p4--0---------------------------------------
--5-5-------------------------------------------------------------------------
-----------------------1--1---------------------------------------------------
------------------------------------------------------------------------------
                                                                              


Comments