Grinspoon - Sweet As Sugar Chords & Tabs

 

Sweet As Sugar Chords & Tabs

Grinspoon Chords & Tabs

Version: 2 Type: Tab

Sweet As Sugar Tab

   
Band: Grinspoon
Album: Best In Show                U = Up stroke   b = Bend    ~ = Let Ring
Song: Sweet As Sugar               D = Down stroke r = Release
Email:Hooray_4_boobies@hotmail.com

Tabbed by Nick Ross

Standard Tuning (E,B,G,D,A,E)

           Intro                            
E|------------------------------------|    
B|------------------------------------|    
G|------------------------------------|    
D|------------------------------------|X4  
A|-2222222222222222-55555555-77777777-|    
E|------------------------------------|
    
E|----------------------------------------------------------------------|
B|----------------------------------------------------------------------|
G|----------------------------------------------------------------------|
D|----------------------------------------------------------------------|
A|-2222222222222222------------------222222222222222-55555555-777777777-|
E|-----------------33333333-00000000------------------------------------|

  Pre-Chorus
E|-----------|
B|-----------|
G|-7-7-777---|
D|-7-7-777-2-|
A|-5-5-555-2-|
E|---------0-|
   D D DUD D 
[ Tab from: http://www.guitartabs.cc/tabs/g/grinspoon/sweet_as_sugar_tab_ver_2.html ]
                            Solo
E|-----------------------------------------------------------------|
B|-7----7----7-----------9b10r-p7--10b12~-12b14-14b15-15b17-17b19~-|
G|-9b11-9b11-9b11r-p7-7----------7---------------------------------|
D|---------------------9-------------------------------------------|
A|-----------------------------------------------------------------|
E|-----------------------------------------------------------------|

              Chorus
E|--------------------------------|   E|-------------------|
B|--------------------------------|   B|-------------------|
G|--------------------------------|   G|-------------------|
D|-7-7-777-9-9-999-4-4-444-4-4444-|X3 D|-7-7-777-9-9-999-7~|
A|-5-5-555-7-7-777-2-2-222-2-2222-|   A|-5-5-555-7-7-777-5~|
E|--------------------------------|   E|-------------------|
 

    Interlude
E|---------0--------------------------------------------|
B|---------0--------------------------------------------|
G|---------0--------------------------------------------|
D|---------0--------------------------------------------|
A|-2~------0-2~---2~--2~--222222222222------------------|
E|---3~-0~-0-------------------------33333333-000000000-|


E|----------------------------------|
B|----------------------------------|
G|----------------------------------|
D|----------------------------------|
A|--22222222222222-5555555-77777777-|
E|----------------------------------|
    Order:
Intro      X1
Pre-Chorus X4
Intro      X1
Pre-Chorus X4
Solo       X1
Chorus     X4
Interlude  X1
Pre-Chorus X6
Intro      X2