Grinspoon - Signpost Chords & Tabs

 

Signpost Chords & Tabs

Grinspoon Chords & Tabs

Version: 1 Type: Bass Tab 0 ratings
1 star 2 stars 3 stars 4 stars 5 stars
comments

Signpost Bass Tab

   
SONG/SIGNPOST
BAND/GRINSPOON
troygrech@hotmail

INTRO
G:--------------------------------
D:--------------------------------
A:--------------------------------
E:3p0-0-3p0-0-5p0-3p0-0-3p0-0-3p0-

G:-----------------------|--------------------------
D:-----------------------|--------------------------
A:-----------------------|--------------------------
E:3p0-3p0-0-5p0-3p0-03/6-|3p0-0-3p0-0-5p0-3p0-0-3-3-

PLAY TWO TIMES
G:-----------------------------------------------
D:-----------------------------------------------
A:----------------------------------------3/5-55-
E:65p0-3p0-00-65p0-3p-3-5-65p0-3p0-006-5p0-------
[ Tab from: http://www.guitartabs.cc/tabs/g/grinspoon/signpost_btab.html ]
VERSE
G:------------|------------|-----------------------
D:------------|------------|-----------------------
A:------------|------------|----------------3/5-55-
E:65p0-3p0-00-|65p0-3p0-35-|65p0-3p0-00-65p0-------

chorus
G:-------------------------------
D:-------------------------------
A:----------------------8-88-666-
E:0-0-66-5-55-555-1-111----------

G:---------------------------------------|--*2
D:---------------------------------------|----
A:------------------------10101010-8-886-|----
E:0-0-66-5-55-555-1-1-111----------------|0-0-

INTERLUDE
G:----------------------
D:----------------------
A:----------------------
E:02306502306502-03-051-

THERES A LITTLE BASS SOLO IN THERE BUT I DON'T KNOW IT LET

Comments