Grinspoon - Secrets Chords & Tabs

 

Secrets Chords & Tabs

Grinspoon Chords & Tabs

Version: 1 Type: Tab 0 ratings
1 star 2 stars 3 stars 4 stars 5 stars
comments

Secrets Tab

Song : Secrets
Artist : Grinspoon
Album : Easy

Tuning: Dropped B + Whole Step Down

Intro and Verse (Distorted)

"Such A Pity, You Left Today.."

c# -------------------------------------------------------
g# -------------------------------------------------------
e  -------------------------------------------------------
b  -------------------------------------------------------
f# --10h12-12-12---10h12-12-12-10h12-12-12---10h12-12-12--
B  --10h12-12-12---10h12-12-12-10h12-12-12---10h12-12-12--

Then

c# ---------------------------------------------
g# ---------------------------------------------
e  ---------------------------------------------
b  ---------------------------------------------
f# --3--3-3-3--0-0------------------------------
B  --3--3-3-3--0-0------------------------------

Chorus

"For Some Secret.."
[ Tab from: http://www.guitartabs.cc/tabs/g/grinspoon/secrets_tab.html ]
c# ----------------------------------------------------------
g# ----------------------------------------------------------
e  ----------------------------------------------------------
b  ----------------------------------------------------------
f# --3--3-3-3--0--0-0--/10~---3--3-3-3--0--0-0--/10-9--------
B  --3--3-3-3--0--0-0---------3--3-3-3--0--0-0--------12-10--

Post Chorus

c# -----------------------------------------------
g# -----------------------------------------------
e  -----------------------------------------------
b  -----------------------------------------------
f# -----------------------------------------------
B  -0/12\12---0-0-0-5-3-0--5-3-0--5-3-0-2~--0-2~--


Bridge (This Is Not Quite Right)

c# ------------------------------|-------------------------
g# ------------------------------|-------------------------
e  ------------------------------|-------------------------
b  ---------------5h7------------|-x3----------------------
f# -------------------5----------|-------------------------
B  --0-0-0--3h5-0-------0-5p0-3--|----0-3-0-3h5-0-5h7-0-3--

Solo

c# --------------------------------------------------------
g# --10~---10\9/10----10\9/10-10b1/2r10----10\9/10----10\--
e  --------------------------------------------------------
b  --------------------------------------------------------
f# --------------------------------------------------------
B  --------------------------------------------------------

It took me fucking ages to get that bridge but is still not right.Sean 
Beardmore
Comments