Grinspoon - No Reason Chords & Tabs

 

No Reason Chords & Tabs

Grinspoon Chords & Tabs

Version: 5 Type: Tab 0 ratings
1 star 2 stars 3 stars 4 stars 5 stars
comments

No Reason Tab

   
Song: NO REASON (thats y ur here)
Artist : GRINSPOON

STANDARD TUNING
b - BEND
h - HAMMER
p.m -PLAM MUTE
X - SCRATCHY THING
 
  INTRO (GUITAR 1)
     C#       G#      A       F# 
E|--4-4------4-4-----5-5------2-2-2-------------------------
B|--6-6------4-4-----5-5------2-2-2-------------------------
G|--6-6------5-5-----6-6------3-3-3------------------------- X 4
D|--6-6------6-6-----7-7------4-4-4-------------------------
A|--4-4-X-X--6-6-X-X-7-7-(X)--4-4-4-X-----------------------
E|--4-4-X-X--4-4-X-X-5-5-(X)--2-0-2-X-----------------------

  INTRO (GUITAR 2)
   *    *
E|-----------------------------------  * - UNISEN BENDS
B|-4----4----------------------------      SUPPOSED TO MAKE
G|-6b8--6b8----8b9-8b9--8--6---------      BOTH STRINGS
D|-----------------------------------  X4  HIT THE SAME 
A|-----------------------------------      NOTE\PITCH
E|-----------------------------------
[ Tab from: http://www.guitartabs.cc/tabs/g/grinspoon/no_reason_tab_ver_5.html ]
  VERSE (THAT SOUNDS SO BLOODY SWEET)
     E         G#   C#   A           E G# C#   A    (pinky)
E|------------4-4-4---4-5--5--    |-----------0----5-------
B|------------4-4-4h5-5-5--5--    |-----------2----5-------
G|--1-1-------5-5-4h6-6-6----- OR |-----------2------------
D|--2-2-------6-6-4h6-6-7-----    |-----------2------------
A|--2-2-------6-6-4---4-7-----    |-----------0------------
E|--0-0-2-3-4-4-4-4---4-5-----    |-----------0------------
   p.m......

     ADD SCRATCHES AND UPSTROKES AND WATEVA TO MAKE IT SOUND GOOD

  CHORUS
     C#       G#      A        F#               
E|--4-4------4-4-----5-5------2-2-2----     |--5----7-------------
B|--6-6------4-4-----5-5------2-2-2----     |--5----7-------------
G|--6-6------5-5-----6-6------3-3-3---- X3  |--6-X8-8-X8----------
D|--6-6------6-6-----7-7------4-4-4----     |--7----9-------------
A|--4-4-X-X--6-6-X-X-7-7-(X)--4-4-4-X--     |--7----9-------------
E|--4-4-X-X--4-4-X-X-5-5-(X)--2-0-2-X--     |--5----7-------------

  INTERLUDE

E|----11---------11----------------------------
B|-12----12---12----12----12-14-12--10---------
G|-------------------------------------9------- X2
D|---------------------------------------------
A|---------------------------------------------
E|---------------------------------------------

OTHER PARTS ARE JUST VARIATION STRUMS OF
C# G# A F#

PICKSLIDES BETWEEN VERSE TO CHORUS

OUTRO IS INTRO MAINLY... EXCEPT MAYBE FOR THE ENDING NOTE

ENJOY
Comments