Grinspoon - No Reason Chords & Tabs

 

No Reason Chords & Tabs

Grinspoon Chords & Tabs

Version: 2 Type: Bass Tab 0 ratings
1 star 2 stars 3 stars 4 stars 5 stars
comments

No Reason Bass Tab

Grinspoon - No Reason

Tabbed By Stephen Pang (piequat@hotmail.com)

My first, let me know what you think :)

Intro/Chorus/End
G|---------------------------|
D|---------------------------|
A|-4-4-----------------------|
E|------4-4--5-5--2--0-2-0---|

Pre-Verse
G|------------------------------|-----------------------|
D|------------------------------|-----------------------|
A|------------2-3-4-------------|------------2-3-4------|
E|-0-0-2-3-4---------5----4-2---|-0-0-2-3-4---------5---|

Verse
G|------------------------------|
D|------------------------------|
A|------------2-3-4-------------|
E|-0-0-2-3-4---------5----4-2---|

Pre-Chorus
G|---------------------------------|-------------------------------|
D|---------------------------------|-------------------------------|
A|------------4/7-6-4-6-7----------|------------2-3-4-6-7----------|
E|-0-0-2-3-4--------------5--4-2---|-0-0-2-3-4------------5--4-2---|

After Chorus
G|-----------------------------------|
D|-----------------------------------|
A|-----------------------------------|
E|-5-5-5-5-5-5-5-5-7-7-7-7-7-7-7-7---|
[ Tab from: http://www.guitartabs.cc/tabs/g/grinspoon/no_reason_btab_ver_2.html ]
After 2nd Chorus
G|-----------------------------------|
D|-----------------------------------|
A|-----------------------------------|
E|-5-5-5-5-5-5-5-5-7-7-7-7-7---12\---|

"I've Got No Reason"
G|-------------------------------|
D|-------------------------------|
A|------------2-3-4-6-7----------|
E|-0-0-2-3-4------------5--4-2---|

Pre-Guitar Solo
G|-------------------------------|
D|-------------------------------|
A|------------2-3-4-6-7----4-6---|
E|-0-0-2-3-4------------5--------|

Guitar Solo
G|---------------------------|-----------------------------|    |-----|
D|---------------------------|-----------------------------| x2 |-----|
A|-7--7h9-6--6h7-4-----4-6---|-7--7h9-6--6h7-4--4----------|    |-----|
E|------------------5--------|--------------------5--4-2---|    |-0---|

After Solo
G|-----------------|-----------------------------------|
D|-----------------|-----------------------------------|
A|---------4-------|-----------------4-4-4-------------|
E|-0---4-------5---|-0-0-0-0-4-4-4-4-------5-5-5-5-5---|

Outro
G|--------------------|
D|--------------------|
A|-4-4----------------|
E|------4-4--5-5--2---|
Comments