Grinspoon - No Reason Chords & Tabs

 

No Reason Chords & Tabs

Grinspoon Chords & Tabs

Version: 1 Type: Bass Tab 0 ratings
1 star 2 stars 3 stars 4 stars 5 stars
comments

No Reason Bass Tab

   
Tab to No Reason (Bass)
This tab is 100% correct
email me with feedback: dan_kewl@hotmail.com

Intro

G------------------------------
D------------------------------
A--4-4-------------------------
E------4-4-5-5-2-0-2-0--------- X 4

Verse

G------------------------------
D------------------------------
A------------2-3-4-6-7-0-------
E--0-0-2-3-4------------------- X 6

Chorus
[ Tab from: http://www.guitartabs.cc/tabs/g/grinspoon/no_reason_btab.html ]
G------------------------------
D------------------------------
A--4-4-------------------------
E------4-4-5-5-2-0-2-0--------- X 3

G--------------------------------
D--------------------------------
A--------------------------------
E-5-5-5-5-5-5-5-5-7-7-7-7-7-7-7-7

"I've got no reason" is the same as the verse

Guitar Solo

G------------------------------
D------------------------------
A--7-6-4-0---------------------
E------------------------------ X 4 
Comments