Grinspoon - Never Dumped A Girl Chords & Tabs

 

Never Dumped A Girl Chords & Tabs

Grinspoon Chords & Tabs

Version: 1 Type: Bass Tab

Never Dumped A Girl Bass Tab

   
                          Never Dumped A Girl - Grinspoon
Tabbed by Tom

Tuning - Standard tuning

Guitar plays Cord once then bass comes in
Intro:
G---------------------------|
A---------------------5---7-|
D----5---7------------------|
E---------------------------|
[ Tab from: http://www.guitartabs.cc/tabs/g/grinspoon/never_dumped_a_girl_btab.html ]
Verse:
G-------------------------------|
A---------------5--7777777------|
D----5---7777777----------------|
E-------------------------  X 8-|

Chorus:
G-------------------------|
A----------5-7-5----------|
D-------5-7-----7-5-------|
E----5-7-----------7-6-5b-|  X 4


Intro  X 1
Verse  X 8
Chorus X 4
Verse  X 10
Chorus X 8
Intro  X 1
b = bend

thats it, easy as that