Grinspoon - More Than You Are Chords & Tabs

 

More Than You Are Chords & Tabs

Grinspoon Chords & Tabs

Version: 2 Type: Tab 0 ratings
1 star 2 stars 3 stars 4 stars 5 stars
comments

More Than You Are Tab

Artist: Grinspoon
Song: More Than You Are
Tuning: Standard
Tabbed By: Aaron Szczotkewycz

Old song but still good if you like Grinspoon. This is played with heaps of
distortion or gain, whatever.

E|------------------------------------------------------|
B|------------------------------------------------------|
G|------------------------------------------------------|
D|----6-6-6-6-6--4-4-4-4-4--2-2-2-2-2-2-2-2-------------|
A|----6-6-6-6-6--4-4-4-4-4--2-2-2-2-2-2-2-2-------------|
E|----4-4-4-4-4--2-2-2-2-2--0-0-0-0-0-0-0-0-------------|

E|------------------------------------------------------|
B|------------------------------------------------------|
G|------------------------------------------------------|
D|----6-6-6-6-6--4-4-4-4-4--2-2-2-2-2-2-2-2-------------|
A|----6-6-6-6-6--4-4-4-4-4--2-2-2-2-2-2-2-2-------------|
E|----4-4-4-4-4--2-2-2-2-2--0-0-0-0-0-0-0-0-------------|

E|------------------------------------------------------|
B|------------------------------------------------------|
G|------------------------------------------------------|
D|----6-6-6-6-6--4-4-4-4-4--2-2-2-2-2-2-2-2-------------|
A|----6-6-6-6-6--4-4-4-4-4--2-2-2-2-2-2-2-2-------------|
E|----4-4-4-4-4--2-2-2-2-2--0-0-0-0-0-0-0-0-------------|

E|------------------------------------------------------|
B|------------------------------------------------------|
G|------------------------------------------------------|
D|----6-6-6-6-6--4-4-4-4-4--2-2-x-2-2-x-2-2-x-2-2-x-----|
A|----6-6-6-6-6--4-4-4-4-4--2-2-x-2-2-x-2-2-x-2-2-x-----|
E|----4-4-4-4-4--2-2-2-2-2--0-0-x-0-0-x-0-0-x-0-0-x-----|

This is played on bass, it might not sound right!

E|------------------------------------------------------|
B|------------------------------------------------------|
G|------------------------------------------------------|
D|----6-6-6-6-6--4-4-4-4-4--2-2-2-2-2-2-2-2-------------|
A|----6-6-6-6-6--4-4-4-4-4--2-2-2-2-2-2-2-2-------------|
E|----4-4-4-4-4--2-2-2-2-2--0-0-0-0-0-0-0-0-------------|

E|------------------------------------------------------|
B|------------------------------------------------------|
G|------------------------------------------------------|
D|----6-6-6-6-6--4-4-4-4-4--2-2-2-2-2-2-2-2-------------|
A|----6-6-6-6-6--4-4-4-4-4--2-2-2-2-2-2-2-2-------------|
E|----4-4-4-4-4--2-2-2-2-2--0-0-0-0-0-0-0-0-------------|

E|------------------------------------------------------|
B|------------------------------------------------------|
G|------------------------------------------------------|
D|----6-6-6-6-6--4-4-4-4-4--2-2-2-2-2-2-2-2-------------|
A|----6-6-6-6-6--4-4-4-4-4--2-2-2-2-2-2-2-2-------------|
E|----4-4-4-4-4--2-2-2-2-2--0-0-0-0-0-0-0-0-------------|

E|------------------------------------------------------|
B|------------------------------------------------------|
G|------------------------------------------------------|
D|----6-6-6-6-6--4-4-4-4-4--2-2-x-2-2-x-2-2-x-2-2-x-----|
A|----6-6-6-6-6--4-4-4-4-4--2-2-x-2-2-x-2-2-x-2-2-x-----|
E|----4-4-4-4-4--2-2-2-2-2--0-0-x-0-0-x-0-0-x-0-0-x-----|

E|------------------------------------------------------|
B|------------------------------------------------------|
G|---------------------5-5-xxxx-------------------------|
D|-----------7-7-xxxx--5-5-xxxx--5-5-0-3----------------|
A|-----------7-7-xxxx--3-3-xxxx--5-5-0-3----------------|
E|-----------5-5-xxxx------------3-3-0-1----------------|

E|------------------------------------------------------|
B|------------------------------------------------------|
G|---------------------5-5-xxxx-------------------------|
D|-----------7-7-xxxx--5-5-xxxx--5-5-0-3----------------|
A|-----------7-7-xxxx--3-3-xxxx--5-5-0-3----------------|
E|-----------5-5-xxxx------------3-3-0-1----------------|

E|------------------------------------------------------|
B|------------------------------------------------------|
G|------------------------------------------------------|
D|------------------------------------------------------|
A|------------------------------------------------------|
E|---555--333--222--111-000----555--333--222--111-000---|

E|------------------------------------------------------|
B|------------------------------------------------------|
G|------------------------------------------------------|
D|------------------------------------------------------|
A|------------------------------------------------------|
E|---555--333--222--111-000----555--333--222--111-000---|

E|------------------------------------------------------|
B|------------------------------------------------------|
G|------------------------------------------------------|
D|----6-6-6-6-6--4-4-4-4-4--2-2-2-2-2-2-2-2-------------|
A|----6-6-6-6-6--4-4-4-4-4--2-2-2-2-2-2-2-2-------------|
E|----4-4-4-4-4--2-2-2-2-2--0-0-0-0-0-0-0-0-------------|


E|------------------------------------------------------|
B|------------------------------------------------------|
G|------------------------------------------------------|
D|----6-6-6-6-6--4-4-4-4-4--2-2-2-2-2-2-2-2-------------|
A|----6-6-6-6-6--4-4-4-4-4--2-2-2-2-2-2-2-2-------------|
E|----4-4-4-4-4--2-2-2-2-2--0-0-0-0-0-0-0-0-------------|
[ Tab from: http://www.guitartabs.cc/tabs/g/grinspoon/more_than_you_are_tab_ver_2.html ]
E|------------------------------------------------------|
B|------------------------------------------------------|
G|------------------------------------------------------|
D|----6-6-6-6-6--4-4-4-4-4--2-2-2-2-2-2-2-2-------------|
A|----6-6-6-6-6--4-4-4-4-4--2-2-2-2-2-2-2-2-------------|
E|----4-4-4-4-4--2-2-2-2-2--0-0-0-0-0-0-0-0-------------|

E|------------------------------------------------------|
B|------------------------------------------------------|
G|------------------------------------------------------|
D|----6-6-6-6-6--4-4-4-4-4--2-2-x-2-2-x-2-2-x-2-2-x-----|
A|----6-6-6-6-6--4-4-4-4-4--2-2-x-2-2-x-2-2-x-2-2-x-----|
E|----4-4-4-4-4--2-2-2-2-2--0-0-x-0-0-x-0-0-x-0-0-x-----|

E|------------------------------------------------------|
B|------------------------------------------------------|
G|---------------------5-5-xxxx-------------------------|
D|-----------7-7-xxxx--5-5-xxxx--5-5-0-3----------------|
A|-----------7-7-xxxx--3-3-xxxx--5-5-0-3----------------|
E|-----------5-5-xxxx------------3-3-0-1----------------|

E|------------------------------------------------------|
B|------------------------------------------------------|
G|---------------------5-5-xxxx-------------------------|
D|-----------7-7-xxxx--5-5-xxxx--5-5-0-3----------------|
A|-----------7-7-xxxx--3-3-xxxx--5-5-0-3----------------|
E|-----------5-5-xxxx------------3-3-0-1----------------|

E|------------------------------------------------------|
B|------------------------------------------------------|
G|---------------------5-5-xxxx-------------------------|
D|-----------7-7-xxxx--5-5-xxxx--5-5-0-3----------------|
A|-----------7-7-xxxx--3-3-xxxx--5-5-0-3----------------|
E|-----------5-5-xxxx------------3-3-0-1----------------|

E|------------------------------------------------------|
B|------------------------------------------------------|
G|---------------------5-5-xxxx-------------------------|
D|-----------7-7-xxxx--5-5-xxxx--5-5-0-3----------------|
A|-----------7-7-xxxx--3-3-xxxx--5-5-0-3----------------|
E|-----------5-5-xxxx------------3-3-0-1----------------|



I regret to say I can not work out the part where it goes quiet, but im sure
someone else has.

E|------------------------------------------------------|
B|------------------------------------------------------|
G|------------------------------------------------------|
D|----6-6-6-6-6--4-4-4-4-4--2-2-2-2-2-2-2-2-------------|
A|----6-6-6-6-6--4-4-4-4-4--2-2-2-2-2-2-2-2-------------|
E|----4-4-4-4-4--2-2-2-2-2--0-0-0-0-0-0-0-0-------------|

E|------------------------------------------------------|
B|------------------------------------------------------|
G|------------------------------------------------------|
D|----6-6-6-6-6--4-4-4-4-4--2-2-2-2-2-2-2-2-------------|
A|----6-6-6-6-6--4-4-4-4-4--2-2-2-2-2-2-2-2-------------|
E|----4-4-4-4-4--2-2-2-2-2--0-0-0-0-0-0-0-0-------------|

E|------------------------------------------------------|
B|------------------------------------------------------|
G|------------------------------------------------------|
D|----6-6-6-6-6--4-4-4-4-4--2-2-2-2-2-2-2-2-------------|
A|----6-6-6-6-6--4-4-4-4-4--2-2-2-2-2-2-2-2-------------|
E|----4-4-4-4-4--2-2-2-2-2--0-0-0-0-0-0-0-0-------------|

E|------------------------------------------------------|
B|------------------------------------------------------|
G|------------------------------------------------------|
D|----6-6-6-6-6--4-4-4-4-4--2-2-x-2-2-x-2-2-x-2-2-x-----|
A|----6-6-6-6-6--4-4-4-4-4--2-2-x-2-2-x-2-2-x-2-2-x-----|
E|----4-4-4-4-4--2-2-2-2-2--0-0-x-0-0-x-0-0-x-0-0-x-----|

E|------------------------------------------------------|
B|------------------------------------------------------|
G|------------------------------------------------------|
D|----6-6-6-6-6--4-4-4-4-4--2-2-x-2-2-x-2-2-x-2-2-x-----|
A|----6-6-6-6-6--4-4-4-4-4--2-2-x-2-2-x-2-2-x-2-2-x-----|
E|----4-4-4-4-4--2-2-2-2-2--0-0-x-0-0-x-0-0-x-0-0-x-----|

E|------------------------------------------------------|
B|------------------------------------------------------|
G|------------------------------------------------------|
D|----6-6-6-6-6--4-4-4-4-4--2-2-x-2-2-x-2-2-x-2-2-x-----|
A|----6-6-6-6-6--4-4-4-4-4--2-2-x-2-2-x-2-2-x-2-2-x-----|
E|----4-4-4-4-4--2-2-2-2-2--0-0-x-0-0-x-0-0-x-0-0-x-----|

E|------------------------------------------------------|
B|------------------------------------------------------|
G|------------------------------------------------------|
D|----6-6-6-6-6--4-4-4-4-4--2-2-x-2-2-x-2-2-x-2-2-x-----|
A|----6-6-6-6-6--4-4-4-4-4--2-2-x-2-2-x-2-2-x-2-2-x-----|
E|----4-4-4-4-4--2-2-2-2-2--0-0-x-0-0-x-0-0-x-0-0-x-----|

E|------------------------------------------------------|
B|------------------------------------------------------|
G|------------------------------------------------------|
D|----6-6-6-6-6--4-4-4-4-4--2-2-x-2-2-x-2-2-x-2-2-x-----|
A|----6-6-6-6-6--4-4-4-4-4--2-2-x-2-2-x-2-2-x-2-2-x-----|
E|----4-4-4-4-4--2-2-2-2-2--0-0-x-0-0-x-0-0-x-0-0-x-----|


E|------------------------------------------------------|
B|------------------------------------------------------|
G|---------------------5-5-xxxx-------------------------|
D|-----------7-7-xxxx--5-5-xxxx--5-5-0-3----------------|
A|-----------7-7-xxxx--3-3-xxxx--5-5-0-3----------------|
E|-----------5-5-xxxx------------3-3-0-1----------------|

E|------------------------------------------------------|
B|------------------------------------------------------|
G|---------------------5-5-xxxx-------------------------|
D|-----------7-7-xxxx--5-5-xxxx--5-5-0-3-let ring-------|
A|-----------7-7-xxxx--3-3-xxxx--5-5-0-3----------------|
E|-----------5-5-xxxx------------3-3-0-1----------------|

Well thatís it, please email me with corrections or comments at
aaron_szczotkewycz@hotmail.com.
Comments