Grinspoon - Lost Control Chords & Tabs

 

Lost Control Chords & Tabs

Grinspoon Chords & Tabs

Version: 2 Type: Tab 0 ratings
1 star 2 stars 3 stars 4 stars 5 stars
comments

Lost Control Tab

tabbed by: dean chittick

song: lost control
artist: grinspoon
album: new detention
tuning: drop D (dadgbe)

key:
***= palm mute

intro/verse:
------------------------------------------------------------------- 
------------------------------------------------------------------- 
------------------------------------------------------------------- 
-0-0-0-0-0-0-0-0-0-5-4-3-0-3-4-5----------------------------------- 
-0-0-0-0-0-0-0-0-0-5-4-3-0-3-4-5----------------------------------- 
-0-0-0-0-0-0-0-0-0-5-4-3-0-3-4-5----------------------------------- 
 * * * * * * * * * 
[ Tab from: http://www.guitartabs.cc/tabs/g/grinspoon/lost_control_tab_ver_2.html ]
verse:
------------------------------------------------------------------- 
------------------------------------------------------------------- 
-0-3----0-3----0-3----0-3--0-5-4-3-0-3-4---------------------------
-0-3----0-3----0-3----0-3--0-5-4-3-0-3-4--------------------------- 
-0-3----0-3----0-3----0-3--0-5-4-3-0-3-4--------------------------- 

chorus:
-----------------------------  ------------------------------------ 
-----------------------------  ------------------------------------ 
---7-----------5-5-----------  ------------------------------------ 
-0-7-0-3-3-3-3-5-5-0-5-5-5-5-x3-10-10-10-10-12-12-12-12------------ 
-0-5-0-3-3-3-3-3-3-0-5-5-5-5-  -8--8--8--8--10-10-10-10------------ 
-0---0-3-3-3-3-----0-5-5-5-5-  ------------------------------------ 

bridge:
------------------------------------------------------------------- 
------------------------------------------------------------------- 
------------------------------------------------------------------- 
-0-0-0-0-0-0-0-0-0----------0-0-0-0-0-0-0-0-0---------------------- 
-0-0-0-0-0-0-0-0-0----------0-0-0-0-0-0-0-0-0---------------------- 
-0-0-0-0-0-0-0-0-0-17-18-19-0-0-0-0-0-0-0-0-0--17-19-0-17-19-17-19-

that's everything.
(emails: silverchair_01@hotmail.com)
Comments