Grinspoon - Lost Control Chords & Tabs

 

Lost Control Chords & Tabs

Grinspoon Chords & Tabs

Version: 3 Type: Bass Tab 0 ratings
1 star 2 stars 3 stars 4 stars 5 stars
comments

Lost Control Bass Tab

   
Grinspoon - Lost Control

Tabbed By Stephen Pang (piequat@hotmail.com)

* Dropped D Tuning *

Intro/Pre-Verse
G|---------------------------------|
D|---------------------------------|
A|---------------------------------|  x 4
D|-0-0-0-0-0-0-0-0-0-5-4-3-0-3-4-5-|

Verse
G|-------|
D|-------|
A|-------| x3
D|-0--3--|

G|-----------------------|
D|-----------------------|
A|-----------------------|
D|-0--3--0-5-4-3-0-3-4-5-|

G|----------------------|
D|----------------------|
A|-------5-5-5-5-5-3----|
D|-0--3--------------5--|

G|----------------------|
D|----------------------|
A|-------0-0-0-0-0------|
D|-0--3------------5-3--|

G|----------------------|
D|----------------------|
A|-------5-5-5-5-5-3----|
D|-0--3--------------5--|
[ Tab from: http://www.guitartabs.cc/tabs/g/grinspoon/lost_control_btab_ver_3.html ]
G|-----------------------|
D|-----------------------|
A|-----------------------|
D|-0--3--0-5-4-3-0-3-4-5-|

Chorus
G|---------------------------|
D|---------------------------|
A|----5---------3--3---------|  x 4
D|-0-----0-3-3--------0-5-5--|

End Chorus
G|---------------------------------|
D|---------------------------------|
A|-----------------3-3-3-3---------|
D|-3-3-3-3-3-3-3-3---------5-5-5-5-|

Bridge (guitar plays once first)
G|---------------------------------|
D|---------------------------5-6-7-|
A|---------------------------------|
D|-0-0-0-0-0-0-0-0-0-0-0-0-0-------|

G|---------------------------------|
D|---------------------------------|
A|-------------------3-5-0-3-5-----| x cbb counting :p
D|-0-0-0-0-0-0-0-0-0-----------5-3-| 

Outro
G|---------------------------------|
D|---------------------------------|
A|---------------------------------|  x 4
D|-0-0-0-0-0-0-0-0-0-5-4-3-0-3-4-5-|

G|---|
D|---|
A|---|
D|-0-|
Comments