Grinspoon - Lost Control Chords & Tabs

 

Lost Control Chords & Tabs

Grinspoon Chords & Tabs

Version: 1 Type: Bass Tab 0 ratings
1 star 2 stars 3 stars 4 stars 5 stars
comments

Lost Control Bass Tab

Grinspoon- new detention- - lost control 
Tabbed by nestor email me at mjnestor4@hotmail.com 
drop d tuning 
k. the sweet thing bout this song is the bass is desorted in the whole song cept 4 the
chorus. so if ur a mad bassest with an fx peddle this is the song 4 u.but if ur like me
n u dont have an fx peddle bludge of ur teacher. this is my  1st tab as well so b kind. 



Intro/bridge- 
-------------------------------- 
-------------------------------- 
-------------------------------- 
-0000-0000-0-543-0-345---------- 

verse- 
---------------------------------------------------------  
--------------------------------------------------------- 
----------------------------------555-5-3---------------- 
-0-3--0-3--0-3--0-543-0-345--0-3----------0-3-666-6-5-3--
[ Tab from: http://www.guitartabs.cc/tabs/g/grinspoon/lost_control_btab.html ]
---------------------------- 
---------------------------- 
-----555-5-3---------------- 
-0-3---------0-543-0345----- 

chorus- 
--------------------------------- 
---------------------------------
-----5---------3-333-------------
-0-0---0-3-0-3-------5-555-0-3-0-

------------------------------------------- 
-------------------------------------------
---------------------3333-3333-------------
-3333-3333-3333-3333-----------5555-5555---

solo-
-------------12-13-14-------------12-13-14-----------------------
-0000-0000-0----------0000-0000-0--------------------------------
--------------------------------------------3-5-0-3-5-0-3--------
-----------------------------------------------------------------

-----------------------------------------------------------------
-------------5-6-7-------------5-6-7----------------------------- 
-----------------------------------------3-5---3-5---3-----------
-0000-0000-0-------0000-0000-0---------------0-----0-------------
Comments