Grinspoon - Let It Go Chords & Tabs

 

Let It Go Chords & Tabs

Grinspoon Chords & Tabs

Version: 1 Type: Tab 0 ratings
1 star 2 stars 3 stars 4 stars 5 stars
comments

Let It Go Tab

Artist: Grinspoon
Song: Let it go

Intro

(play 4 times)
---------------------------|
---------------------------|
-------------------10------|
--9-9-9-9-9-9-9-9----------|
--9-9-9-9-9-9-9-9----------|
--9-9-9-9-9-9-9-9----------|
p.m...........
[ Tab from: http://www.guitartabs.cc/tabs/g/grinspoon/let_it_go_tab.html ]
---------------------------|
---------------------------|
---------------------------|
--9-0-2-0-2-0-9-0-2-0-9----|
--9-0-2-0-2-0-9-0-2-0-9----|
--9-0-2-0-2-0-9-0-2-0-9----|


Chorus

-----------------------------|
-----------------------------|
-----------------------------|
--9-0-2-0-2-0-9-0-2-0-9------|
--9-0-2-0-2-0-9-0-2-0-9------|
--9-0-2-0-2-0-9-0-2-0-9------|

Bridge

--------------------------|
--------------------------|
--------------------------|
--9-9-xx-8-xx-7-5-2-------|
--9-9-xx-8-xx-7-5-2-------|
--9-9-xx-8-xx-7-5-2-------|

later








Comments