Grinspoon - Just Ace Chords & Tabs

 

Just Ace Chords & Tabs

Grinspoon Chords & Tabs

Version: 4 Type: Tab 0 ratings
1 star 2 stars 3 stars 4 stars 5 stars
comments

Just Ace Tab

-------------------------------------------------------------------------------
			     JUST ACE - Grinspoon
-------------------------------------------------------------------------------
Tabbed by: Mick Cole
Email: michaelcoleman@iqconnect.net.au

Tuning:standred

Intro
e|--3---0------------0---3---0---------------------------------------------|
B|----3---0-0-0-1-h3-------3---0-0-0-1-------------------------------------|
G|------------------------------------2-h0-rings-out-----------------------|
D|-------------------------------------------------------------------------|
A|-------------------------------------------------------------------------|
E|-------------------------------------------------------------------------|
[ Tab from: http://www.guitartabs.cc/tabs/g/grinspoon/just_ace_tab_ver_4.html ]
Chorus
e|-------------------------------------------------------------------------|
B|-------------------------------------------------------------------------|
G|--------7-7-7-9-9-9-5--5-5-----------------------------------------------|
D|--5-5-5-7-7-7-9-9-9-5--5-5-----------------------------------------------|
A|--5-5-5-5-5-5-7-7-7-3--3-3-----------------------------------------------|
E|--3-3-3------------------------------------------------------------------|

Bridge
e|-------------------------------------------------------------------------|
B|-------------------------------------------------------------------------|
G|------7-7-9-9-9-5--5-5---------------------------------------------------|
D|--5-5-7-7-9-9-9-5--5-5---------------------------------------------------|
A|--5-5-5-5-7-7-7-3--3-3---------------------------------------------------|
E|--3-3---------------------------------------------------------------------

Outro
e|-------------------------------------------------------------------------|
B|-------------------------------------------------------------------------|
G|-------------------------------------------------------------------------|
D|--5-----5----------------------------------------------------------------|
A|--5-----5----------------------------------------------------------------|
E|--3-----3----------------------------------------------------------------|

  Simple song but fun to play enjoy players!
Comments