Grinspoon - Just Ace Chords & Tabs

 

Just Ace Chords & Tabs

Grinspoon Chords & Tabs

Version: 3 Type: Tab 0 ratings
1 star 2 stars 3 stars 4 stars 5 stars
comments

Just Ace Tab

Part 1
e|--3------------------------2--3--------------------------------------|
B|----3--5---------------3-5------3--5---------------------------------|
G|----------4--4-4--5-------------------4--4-4--5--4-2-0---------------|x4
D|---------------------------------------------------------------------|
A|---------------------------------------------------------------------|
E|---------------------------------------------------------------------|

Then It's just the bass through the verse
[ Tab from: http://www.guitartabs.cc/tabs/g/grinspoon/just_ace_tab_ver_3.html ]
Part 2
e|----------------------------------------------------|
B|----------------------------------------------------|
G|----------------------------------------------------|x4
D|---------7--7-7--------5-5-5-5----------------------|
A|-5--5-5--5--5-5---2-2--3-3-3-3----------------------|
E|-3--3-3-----------0-0-------------------------------|

Part 3
e|-------------------------------|
B|-------------------------------|
G|-------------------------------|x4
D|-------7-7------5--5-5-5-------|
A|--5-5--5-5--22--3--3-3-3-------|
E|--3-3-------00-----------------|

Part 4
e|---------------------------------------------------------------------------|
B|---------------------------------------------------------------------------|
G|---------------------------------------------------------------------------|
D|---------------------------------------------------------------------------|
A|----5--------------5-------------------------------------------------------|
E|----3--------------3-------------------------------------------------------|

Order of the song

Part 1
part 2
part 1
part 2
part 3
part 4
part 2
Comments