Grinspoon - Just Ace Chords & Tabs

 

Just Ace Chords & Tabs

Grinspoon Chords & Tabs

Version: 1 Type: Tab 0 ratings
1 star 2 stars 3 stars 4 stars 5 stars
comments

Just Ace Tab

heya all. dis is my first time tabbin but it shouldnt b 2 bad.

-3----------------------3---------------3---------------------3--------------
---3--5-------------------3--5------------3--5------------------3--5---------
--------4-4-4-5-4-5-4----------4-4-4-5---------4-4-4-5-4-5-4---------4-4-4-5-
-----------------------------------------------------------------------------
-----------------------------------------------------------------------------
-----------------------------------------------------------------------------

[ Tab from: http://www.guitartabs.cc/tabs/g/grinspoon/just_ace_tab.html ]
------------------------------------------------------------------
------------------------------------------------------------------
--------7--7---9--9---3--3--3-----------7--7---9--9---3--3--3-----
-5--5---7--7---9--9---3--3--3----5--5---7--7---9--9---3--3--3-----
-5--5---5--5---7--7---1--1--1----5--5---5--5---7--7---1--1--1-----
-3--3----------------------------3--3-----------------------------


------------------------------------------------------------------
------------------------------------------------------------------
--------7--7---9--9---3--3--3-----------7--7---9--9---3--3--3-----
-5--5---7--7---9--9---3--3--3----5--5---7--7---9--9---3--3--3---5-
-5--5---5--5---7--7---1--1--1----5--5---5--5---7--7---1--1--1---5-
-3--3----------------------------3--3---------------------------3-




Comments