Grinspoon - Just Ace Chords & Tabs

 

Just Ace Chords & Tabs

Grinspoon Chords & Tabs

Version: 1 Type: Bass Tab 0 ratings
1 star 2 stars 3 stars 4 stars 5 stars
comments

Just Ace Bass Tab

   
Song: Just Ace
Artist: Grinspoon
Album: Guide to better living
Tabbed By: HippyKesh	(Hippy_kesh@hotmail.com)


Drop the Tuning D,A,D,G

Riff 1

G---------------------------|---------------------------|
D---------------------------|---------------------------|
A-----------555--77-->--3-33|-----------555--77-->--3-30|
E----3-3--------------------|----3-3--------------------|

Riff2
[ Tab from: http://www.guitartabs.cc/tabs/g/grinspoon/just_ace_btab.html ]
G---------------------------|---------------------------|
D---------------------------|---------------------------|
A-----------555--77-->--3-33|-----------555--775--3-5---|
E----3-3--------------------|----3-3--------------------|

Verse
G---------------------------|---------------------------|
D---------------------------|---------------------------|
A-----------5-5--7-->--3-33-|-->-101010--5-5--77-3-0----|
E----3-3--------------------|---------------------------|

G---------------------------|-----------------------------|
D---------------------------|-----------------------------|
A----101010--5-5--7--3--3---|----101010--555--77--5--3--0-|
E---------------------------|-----------------------------|


later peoples have fun!

Comments