Grinspoon - Hold On Me Chords & Tabs

 

Hold On Me Chords & Tabs

Grinspoon Chords & Tabs

Version: 1 Type: Tab 0 ratings
1 star 2 stars 3 stars 4 stars 5 stars
comments

Hold On Me Tab

Artist: Grinspoon
Song: Hold On Me
Tabbed by liam 

Intro/Bridge
E-------------------------------|
b-------------------------------|
g---5---------------------------|
d---5--5--5-------5--7--5--7----|
a---3--5--5-------5--7--5--7----|
e------3--3-------3--5--3--5----|


Verse Gutiar 1
E----------------------------------------------|
b----------------*---*---*---*----*--*--*--*---|
g----------------10--10--10--10---7--7--7--7---|
d--7-------------10--10--10--10---7--7--7--7---|
a--7-16-times----8---8---8---8----5--5--5--5---|
e--5-------------------------------------------|

Verse Gutiar 2 (over the 8 10 10 and 5 7 7 chords)
E---------------------------------------------------|
b----*-----*-----*-----*--------*----*----*-----*---|
g---9b----9b----9b----9b-------6b---6b---6b----6b---|
d---------------------------------------------------|
a---------------------------------------------------|
e---------------------------------------------------|
[ Tab from: http://www.guitartabs.cc/tabs/g/grinspoon/hold_on_me_tab.html ]
Prechorus x2
E--------------------------------|
b--------------------------------|
g-------------------7--7--7--7---|
d---3--3--3--3------7--7--7--7---|
a---3--3--3--3------5--5--5--5---|
e---1--1--1--1-------------------|


Chorus
E-----------------------------------------------------------|
b-----------------------------------------------------------|
g--------------------------5-5------------------------------|
d---7--7--7---5-5-5--4-4-4-5-5-3-3--3-3-3---3-3-3---3-3-3---|
a---7--7--7---5-5-5--4-4-4-3-3-3-3--3-3-3---3-3-3---3-3-3---|
e---5--5--5---3-3-3--2-2-2-----1-1--0-1-1---0-1-1---0-1-1---|




guitar solo:
E-------------------------------------------------------------------------|
b-------------------------------------------------------------------------|
g--6-6-7-9-7-6-----6-6-7-9-7-6---------8--10--10-8-10-----8-10-11b10-8~~~-|
d--------------7---------------7---7s9-----------------7s9----------------|
a-------------------------------------------------------------------------|
e-------------------------------------------------------------------------|




any suggestions send to sk8in_flame@westnet.com.au
its my first tab so go easy
Comments