Grinspoon - Hard Act To Follow Chords & Tabs

 

Hard Act To Follow Chords & Tabs

Grinspoon Chords & Tabs

Version: 3 Type: Tab 0 ratings
1 star 2 stars 3 stars 4 stars 5 stars
comments

Hard Act To Follow Tab

Song: Hard Act To Follow
Band: Grinspoon
Tabber: Trolley


I really wanted the full tab to this so i came up with one myself!


     |------------------|
     |------------------|
     |------------------|   x8
     |----4-4-44-4-2-7-2|
     |----2-2-22-2-0-5-2|
     |------------------|

     |-----------------|--------------------|
     |-----------------|--------------------|
     |-----------------|--------------------|
     |-----------------|-777777-------------|
     |-2222222222222222|-555555--777777----7|
     |-0000000000000000|---------555555----5|

     Chorus:
[ Tab from: http://www.guitartabs.cc/tabs/g/grinspoon/hard_act_to_follow_tab_ver_3.html ]
     |-----------------|-----------------|
     |-----------------|-----------------|
     |-----------------|-----------------|
     |-44444444-7-7-7-7|-----------------|
     |-22222222-5-5-5-5|-77777777-555-777|
     |-----------------|-55555555-333-555|

     This bit is played under the solo:

     |-------------|-------------------|----------------------|-------------|
     |-------------|-------------------|----------------------|-------------|
     |---4---4---4-|-----------7-------|-----------2---2---2--|-------------|
     |---2---2---2-|------ 7---5---7---|---5-------2---2---2--|------5---5--|
     |-------------|-------5-------5---|---3-------0---0---0--|------3---3--|
 Hope ya like it!
Comments