Grinspoon - Hard Act To Follow Chords & Tabs

 

Hard Act To Follow Chords & Tabs

Grinspoon Chords & Tabs

Version: 1 Type: Tab 0 ratings
1 star 2 stars 3 stars 4 stars 5 stars
comments

Hard Act To Follow Tab

-------------------------------------------------------------------------------
			 HARD ACT TO FOLLOW - Grinspoon
-------------------------------------------------------------------------------
Tabbed by:Angus
Email:kild0007@flinders.edu.au

This is my first go at tabbing something out. This song is pretty easy but
I'm not too sure on the solo if anyone out there can help me out?
[ Tab from: http://www.guitartabs.cc/tabs/g/grinspoon/hard_act_to_follow_tab.html ]
Tuning:Standard
                                INTRO/VERSE
e|---------------------------------------------------------------------------|
B|---------------------------------------------------------------------------|
G|---------------------------------------------------------------------------|
D|--4------4--4--4--------2--2-----6-------2-------x-------------------------|
A|--2------2--2--2--------0--0-----4-------2-------x-------------------------|
E|---------------------------------------------------------------------------|
Well You're a hard act to follow....
                                CHORUS - Strum
e|---------------------------------------------------------------------------|
B|---------------------------------------------------------------------------|
G|---------------------------------------------------------------------------|
D|---4---------------7-------------------------------------------------------|
A|---2---------------5--------------7----------------5-----------------------|
E|----------------------------------5----------------3-----------------------|
Chills, thrills and sunday pills...
                                BRIDGE
e|---------------------------------------------------------------------------|
B|---------------------------------------------------------------------------|
G|---------------------------------------------------------------------------|
D|---4---4---4------------7------------------2---2---2-----------------------|play this x2:
A|---2---2---2------- 7---5---7------5-------2---2---2--------5---5---7------|
E|--------------------5-------5------3-------0---0---0--------3---3---5------|
This is played under the solo and then play chorus a few times to finish. Thats it!!
Any suggestions, corrections, tabbed solo??

PS. if anyone is interested in stating a band and you live near Adelaide South
Australia my e-mail: kild0007@flinders.edu.au
Comments