Grinspoon - Dont Change Chords & Tabs

 

Dont Change Chords & Tabs

Grinspoon Chords & Tabs

Version: 3 Type: Tab 0 ratings
1 star 2 stars 3 stars 4 stars 5 stars
comments

Dont Change Tab

no one tabbed it, so i did

INTRO:
e|-----------------------------------------------------------------------------
b|10---------------------------------------------------------------------------
g|----------9-11------------6-9-------4-6-------------------------------------
d|-----------------------------------------------------------------------------
a|-----------------------------------------------------------------------------
e|-----------------------------------------------------------------------------

VERSE:
e|-----------------------------------------------------------------------------
b|-----------------------------------------------------------------------------
g|-----------------------------------------------------------------------------
d|-----------------------------------------------------------------------------
a|-7-----------7-7-7---6-6-6---4-------*-*-4-4-*-*-4-4-------------------------
e|-5-----------5-5-5---4-4-4---2-------*-*-2-2-*-*-2-2-------------------------

[ Tab from: http://www.guitartabs.cc/tabs/g/grinspoon/dont_change_tab_ver_3.html ]
CHORUS:
e|-----------------------------------------------------------------------------
b|-----------------------------------------------------------------------------
g|-----------------------------------------------------------------------------
d|-4-4-4-4----7-7-7-7-7-7-7-7--------------------------------------------------
a|-2-2-2-2----5-5-5-5-5-5-5-5--------------------------------------------------
e|-----------------------------------------------------------------------------

INTERLUDE:
e|-----------------------------------------------------------------------------
b|-10---14---------------------------------------------------------------------
g|----------9------------------------------------------------------------------
d|-----------------------------------------------------------------------------
a|-----------------------------------------------------------------------------
e|-----------------------------------------------------------------------------


thats all i know.
good luck
Comments