Grinspoon - Dont Change Chords & Tabs

 

Dont Change Chords & Tabs

Grinspoon Chords & Tabs

Version: 1 Type: Tab 0 ratings
1 star 2 stars 3 stars 4 stars 5 stars
comments

Dont Change Tab

   dont change..grinspoon..
   tab..PAULo..\
[ Tab from: http://www.guitartabs.cc/tabs/g/grinspoon/dont_change_tab.html ]
 intro:
 e -------------------------
 b --10---------------------
 g -------9s11--6s9---------
 d ------------------9s11---
 a -------------------------
 e -------------------------
verse
   -------------------------/--------
   -------------------------/x-------
   --2----------2-2---------/x-------
   --2----------2-2---------/x-------
   --0----------0-0-66-4----/x444444-
   -----------------44-2----/x222222-
chorus
   --------------------9p0---9p0-----
   ------------------10----10--------
   --4s7---4s7-----------------------
   --4s7---4s7--7--------------------
   --2s5---2s5--7--------------------
   -------------5--------------------
Wicked stuff from an aussie band.....
Comments