Grinspoon - Chemical Heart Chords & Tabs

 

Chemical Heart Chords & Tabs

Grinspoon Chords & Tabs

Version: 8 Type: Tab 0 ratings
1 star 2 stars 3 stars 4 stars 5 stars
comments

Chemical Heart Tab

I hope this is ok, it sounded good at home but i dont have
my guitar with me at school. ive watched grinspoon play this
on The Panel and listened to live recordings and it seems right. 
Im not sure of the break, but it sounds ok.

Intro & Verse
			 S
e---10------10------10------8-----7-----7---------
B------10------10------10/8---8-----8-----8-------
G-------------------------7-----7-----7-----------
D-0-------0-------0-------------------------------
A-------------------------------------------------
E-------------------------------------------------
[ Tab from: http://www.guitartabs.cc/tabs/g/grinspoon/chemical_heart_tab_ver_8.html ]
Chorus
e-3---/4--/6--/3--------------
B-0---/5--/7--/0--------------
G-4---/7--/9--/4--------------
D-2---/5--/7--/2--------------
A-----------------------------
E-----------------------------

Played before break, once
e-----------
B-11---9----
G-11---9----
D-11---9----
A--9---7----
E-----------

Break x3
e----------------------
B----------------------
G--7-6--5-4--4-4-5-6---
D--7-6--5-4--4-4-5-6---
A--5-4--3-2--2-2-3-4---
E----------------------

End of Break
e------------
B-2----4--5--
G-2----4--5--
D-2----4--5--
A-0----2--3--
E------------

End on D
e-2--
B-3--
G-2--
D-0--
A----
E----
Comments