Grinspoon - Chemical Heart Chords & Tabs

 

Chemical Heart Chords & Tabs

Grinspoon Chords & Tabs

Version: 7 Type: Tab 0 ratings
1 star 2 stars 3 stars 4 stars 5 stars
comments

Chemical Heart Tab

Grinspoon
Chemical Heart

|----------------------------------------------------------|
|-------15--------15--------15///////13-----12----12///15--|
|-----------14--------14--------14///////12----12---12///14|
|---------------0---------0----------------0------0--------|
|----------------------------------------------------------|
|----------------------------------------------------------|
[ Tab from: http://www.guitartabs.cc/tabs/g/grinspoon/chemical_heart_tab_ver_7.html ]
repeat till chorus

CHORUS:

|------------------------------------------|
|--5/7--7--7--7--7--7--10-10--12--7--7--7--|
|--5/7--7--7--7--7--7--9--9---11--7--7--7--|
|------------------------------------------|
|------------------------------------------|
|------------------------------------------|


repeat intro couple of times and then back to chorus

if you have any problems email me @ buddah69er@hotmail.com
Comments