Grinspoon - Chemical Heart Chords & Tabs

 

Chemical Heart Chords & Tabs

Grinspoon Chords & Tabs

Version: 5 Type: Tab 2 ratings
1 star 2 stars 3 stars 4 stars 5 stars
comments

Chemical Heart Tab

Band - GrinspoonSong - Chemical HeartAlbum - New DetentionStandard tuning

INTRO/VERSE
e--------------------------------------------|
b--15---15---15--15\13--13---12---12--12/15--|
g----14---14---14---------12---12---12-------|
d--------------------------------------------|
a--------------------------------------------|
E--------------------------------------------|

[ Tab from: http://www.guitartabs.cc/tabs/g/grinspoon/chemical_heart_tab_ver_5.html ]
CHORUS
e--3/5--5------1/3--3------|
b--3/5--5------1/3--3------|
g--5/7--7------2/4--4------|
d--5/7--7------3/5--5------|
a--3/5--5------3/5--5------|
E--------------1/3--3------|
^ ^
Strumming not shown for these chords


BREAK(with strings) x3
e--5---3--||---5---5---3---3---||--5---3--|
b--5---3--||*--7---5---5---3--*||--5---3--|
g--7---4--||---7---6---5---4---||--7---4--|
d--7---5--||---7---7---5---5---||--7---5--|
a--5---5--||*--5---7---3---5--*||--5---5--|
E------3--||-------5-------3---||------3--|

you can get other grinspoon stuff from www.grinspoon.com.au/albums
Comments