Grinspoon - Chemical Heart Chords & Tabs

 

Chemical Heart Chords & Tabs

Grinspoon Chords & Tabs

Version: 3 Type: Tab 0 ratings
1 star 2 stars 3 stars 4 stars 5 stars
comments

Chemical Heart Tab

   
chemical heart
grinspoon
tabed by Chuck wise

drop d tuning as always from grinspoon

INTRO and VERSE
e---------------------------------------------------------------
B-----15-------15---------15----13--13------12--------12----15--
G---------14-------14--------14/12------12------12-------12\14--
D--0---------0----------0--------------------------0------------
A---------------------------------------------------------------
D---------------------------------------------------------------

[ Tab from: http://www.guitartabs.cc/tabs/g/grinspoon/chemical_heart_tab_ver_3.html ]
CHORUS
e------------------------------
B------------------------------
G--5-5\7--7-7-7----------------                                 
D--5-5\7--7-7-7--3-3--5--5-5---
A--3-3\5--5-5-5--3-3--5--5-5---
D----------------3-3--5--5-5---

if you feel lazy and don't want to
tune down just use C5 D5 F5 G5
the bridge will still sound good

BRIDGE
e------------------------|---------------------------------
B------------------------|---------------------------------
G--10-10-10-10--9-9-9-9--|--7-7--6--6-6---5-5--4--4-4------  x4
D--10-10-10-10--9-9-9-9--|--7-7--7--7-7---5-5--5--5-5------
A---8--8--8--8--7-7-7-7--|--5-5--7--7-7---3-3--5--5-5------
D------------------------|-------5--5-5--------3--3-3------

e------------------------|
B------------------------|
G--10-10-10-10--9-9-9-9--|
D--10-10-10-10--9-9-9-9--|
A---8--8--8--8--7-7-7-7--|
D------------------------|

easy
enjoy

yourmother goes hard
Comments