Grinspoon - Chemical Heart Chords & Tabs

 

Chemical Heart Chords & Tabs

Grinspoon Chords & Tabs

Version: 10 Type: Tab 0 ratings
1 star 2 stars 3 stars 4 stars 5 stars
comments

Chemical Heart Tab

Grinspoon - Chemical Heart

This is the full song of Chemical Heart and to tell you the truth it only took me
about 15 minutes to complete, this is another version of how to play
Chemical Heart, i find it easier to play it higher up than some other tabs.

E---------------------------------------------------------------| x11
B---15------15---------15---------13------12---------12---------|
D---------0-------0------------------12------12---12----12------|
E-0-----------------------------0-------0-------0---------------|
G------14------14---14----14------------------------------------|
A---------------------------------------------------------------|

E---------------------------------------------------------------|
G---------------------------------------------------------------|
A---------------------------------------------------------------|
B-5---5-5-5-5---5-5-5-5-5-5-----3---3-3-3-7-7-7-7-7-7-8---------|
D-5---5-5-5-5---5-5-5-5-5-5-----3---3-3-3-7-7-7-7-7-7-8---------|
E-3---3-3-3-3---3-3-3-3-3-3-----3---3-3-3-5-5-5-5-5-5-6---------|

E---------------------------------------------------------------| x3
G---------------------------------------------------------------|
A---------------------------------------------------------------|
B-5---5-5-5-5---5-5-5-5-5-5-----3---3-3-3-7-7-7-7-7-7-8---------|
D-5---5-5-5-5---5-5-5-5-5-5-----3---3-3-3-7-7-7-7-7-7-8---------|
E-3---3-3-3-3---3-3-3-3-3-3-----1---1-1-1-5-5-5-5-5-5-6---------|

E---------------------------------------------------------------| x6
B---15------15---------15---------13------12---------12---------|
D---------0-------0------------------12------12---12----12------|
E-0-----------------------------0-------0-------0---------------|
G------14------14---14----14------------------------------------|
A---------------------------------------------------------------|
[ Tab from: http://www.guitartabs.cc/tabs/g/grinspoon/chemical_heart_tab_ver_10.html ]
E---------------------------------------------------------------|
G---------------------------------------------------------------|
A---------------------------------------------------------------|
B-5---5-5-5-5---5-5-5-5-5-5-----3---3-3-3-7-7-7-7-7-7-8---------|
D-5---5-5-5-5---5-5-5-5-5-5-----3---3-3-3-7-7-7-7-7-7-8---------|
E-3---3-3-3-3---3-3-3-3-3-3-----3---3-3-3-5-5-5-5-5-5-6---------|

E---------------------------------------------------------------| x2
G---------------------------------------------------------------|
A---------------------------------------------------------------|
B-5---5-5-5-5---5-5-5-5-5-5-----3---3-3-3-7-7-7-7-7-7-8---------|
D-5---5-5-5-5---5-5-5-5-5-5-----3---3-3-3-7-7-7-7-7-7-8---------|
E-3---3-3-3-3---3-3-3-3-3-3-----1---1-1-1-5-5-5-5-5-5-6---------|

E-----------------------------------|
G-----------------------------------|
A-----------------------------------|
B-5--5--5--5--5-5-5-5-5-5-5-5-------|
D-5--5--5--5--5-5-5-5-5-5-5-5-------|
E-5--5--5--5--5-5-5-5-5-5-5-5-------|

E------------------------------------------------------------------| x4
G------------------------------------------------------------------|
A------------------------------------------------------------------|
B------------------------------------------------------------------|
D-7-7-7-7-7-7-7-7-6-6-6-6-6-6-6-6-5-5-5-5-5-5-5-5-4-4-4-4-4-4-4-4--|
E-7-7-7-7-7-7-7-7-6-6-6-6-6-6-6-6-5-5-5-5-5-5-5-5-4-4-4-4-4-4-4-4--|

E----------------------------------------------------------------| x4
B---15------15---------15---------13------12---------12----------|
D---------0-------0------------------12------12---12----12-------|
E-0-----------------------------0-------0-------0----------------|
G------14------14---14----14-------------------------------------|
A----------------------------------------------------------------|

E----------------------------------------------------------------| x8
G----------------------------------------------------------------|
A----------------------------------------------------------------|
B-5---5-5-5-5---5-5-5-5-5-5-----3---3-3-3-7-7-7-7-7-7-8----------|
D-5---5-5-5-5---5-5-5-5-5-5-----3---3-3-3-7-7-7-7-7-7-8----------|
E-3---3-3-3-3---3-3-3-3-3-3-----1---1-1-1-5-5-5-5-5-5-6----------|
Comments