Grinspoon - Chemical Heart Acoustic Chords & Tabs

 

Chemical Heart Acoustic Chords & Tabs

Grinspoon Chords & Tabs

Version: 2 Type: Tab 0 ratings
1 star 2 stars 3 stars 4 stars 5 stars
comments

Chemical Heart Acoustic Tab

Chemical Heart Acoustic - Grinspoon
Tabbed By Oliver Rees. Drop D

Intro/Verse:

E|---------------------------------------------------|
B|---3-------3------3--------1------0-------0--------|
G|-----2-------2------2--------0------0------0-------|
D|-0------0------0--------0------0-------0-----------|
A|---------------------------------------------------|
E|---------------------------------------------------|

Chorus:

E|-2-2-2----5-5----7----|
B|-3-3-3----6-6----8----|
G|-2-2-2----6-6----8----|
D|----------------------|
A|----------------------| Repeat x 4
E|----------------------|
Bridge/Coda:
[ Tab from: http://www.guitartabs.cc/tabs/g/grinspoon/chemical_heart_acoustic_tab_ver_2.html ]
E|-----------------------------|
B|-5-5-5-5-5-5--5-5-5-5-5-5----|
G|-4-4-4-4-4-4--4-4-4-4-4-4----|
D|-3-3-3-3-3-3--2-2-2-2-2-2----|
A|-0-0-0-0-0-0--0-0-0-0-0-0----|
E|-----------------------------|

Instumental With Strings:

Guitar 1

E|--------------------------|
B|-5-5-5-5-5-5-5-5-5-5-5-5--|
G|-4-4-4-4-4-4-4-4-4-4-4-4--|
D|-3-3-3-3-3-3-3-3-3-3-3-3--|
A|-0-0-0-0-0-0-0-0-0-0-0-0--|
E|--------------------------|

Guitar 2 (Optional)

E|--------------------------|
B|--------------------------|
G|-7-7----6-6----5-5----4-4-|
D|-7-7----6-6----5-5----4-4-|
A|-5-5----4-4----3-3----2-2-|
E|--------------------------|

End Chord:

E|-----|
B|--3--|
G|--2--|
D|--0--|
A|--0--|
E|--0--|
Comments