Grinspoon - Champion Chords & Tabs

 

Champion Chords & Tabs

Grinspoon Chords & Tabs

Version: 1 Type: Tab 0 ratings
1 star 2 stars 3 stars 4 stars 5 stars
comments

Champion Tab

   
Grinspoon, Champion.
 Tabbed by Glenn Andreasen ibanez_grx20@hotmail.com.
  
Date: 3/7/01
Band: Grinspoon
Album: Guide to a better living
Song: Champion
Tuning: D A D G B E
Key: p - pull off
     h - hammer on
     b - bend
     x - muted note

Intro
D 00-0-5---3------------
A 00-0-3---1----------3-
D 00-0---0---0-3p0-2h3--

D 0-0-00-0-0-000-0-0-00-00-0-0-0-1-0-0-00-0-0-000-0-0
A 0-0-00-0-0-000-0-0-00-00-0-0-0-1-0-0-00-0-0-000-0-0
D 0-0-00-0-0-000-0-0-00-00-0-0-0-1-0-0-00-0-0-000-0-0

D 00-0--1--0-
A 00-0--1--0-
D 00-0--1--0-let ring

Pre Verse
E x-x-x-x-
B x-x-x-x-
G x-x-x-x-
D x-x-x-x-
A x-x-x-x-
D x-x-x-x-

Verse
D 0-0--3-4-5-------
A 0-0--3-4-5b---3--
D 0-0--3-4-5b-0-3b-
[ Tab from: http://www.guitartabs.cc/tabs/g/grinspoon/champion_tab.html ]
D 0-0-00-0-0-000-0-0-00-00-0-0-0-1-0-0-00-0-0-000-0-0
A 0-0-00-0-0-000-0-0-00-00-0-0-0-1-0-0-00-0-0-000-0-0
D 0-0-00-0-0-000-0-0-00-00-0-0-0-1-0-0-00-0-0-000-0-0

D 00-0-1-
A 00-0-1-
D 00-0-1-

Bridge
D 7-7-7-7-7-7-7-7-7-7-7-7-7-7-7-7--7-7-7-7-7-7-7-7-7-7
A 5-5-5-5-5-5-5-5-5-5-5-5-5-5-5-5--5-5-5-5-5-5-5-5-5-5
D ----------------------------------------------------

D 7-7-7-7-7-7-
A 5-5-5-5-5-5-
D ------------

D 00-0-5---3-------------
A 00-0-3---1-----------3-
D 00-0---0---0-3p0-2h3---

D 5--3--2--7--5-3-
A 5--3--2--7--5-3-
D 5--3--2--7--5-3-

Chorus
D 7-7-7-7-7-7--5--3--2--7--5-3-
A 5-5-5-5-5-5--5--3--2--7--5-3-
D -------------5--3--2--7--5-3-

Outro
D 0-0-------3-3-4-5-------
A 0-0-3h555-3-3-4-5b-0-3--
D 0-0-------3-3-4-5b-0-3b-

D 0-0-0-0--0-0-0-0-0--0-0-0-0-0-
A 0-0-0-0--0-0-0-0-0--0-0-0-0-0-
D 0-0-0-0--0-0-0-0-0--0-0-0-0-0- 
:: Ultimate Guitar Archive :: 
http://www.ultimate-guitar.com 



Comments