Grinspoon - Boundary Chords & Tabs

 

Boundary Chords & Tabs

Grinspoon Chords & Tabs

Version: 1 Type: Bass Tab 0 ratings
1 star 2 stars 3 stars 4 stars 5 stars
comments

Boundary Bass Tab

GRINSPOON - "Boundary" - Bass Tab

Drop D Tuning(DADG)

Intro/Pre-Verse:
                       (x3)
|---------------------------|-----------------|
|*-------------------------*|-----------------|
|*-5-4-3-5-4-3-5-4-3-5-4-3-*|-5-4-3-5-4-3-5-\-|
|---------------------------|-----------------|

Verse:
|------------------------|------------------|
|*-----------------------|-----------------*|
|*-5-5--5-8-8-5-5--5-8-8-|-3-3-3-3---------*|
|------------------------|---------3-3-3-3--|
[ Tab from: http://www.guitartabs.cc/tabs/g/grinspoon/boundary_btab.html ]
Chorus:
                                                   (x2)
|-------------------------|-----------------------------|
|*------------------------|----------------------------*|
|*------------------------|----------------------------*|
|--5-5--5-5-5--5-5--5-5-5-|-3-3--3-3-3/10-10--10-10-10--|

Bridge:
                      (x4)
|--------------------------|
|*------------------------*|
|*------------------------*|
|--0---0-3---0-5-3-5--0-3--|

By: Johari Taylor
E-mail: viking@powerup.com.au
Comments