Grinspoon - Black Friday Chords & Tabs

 

Black Friday Chords & Tabs

Grinspoon Chords & Tabs

Version: 1 Type: Bass Tab 0 ratings
1 star 2 stars 3 stars 4 stars 5 stars
comments

Black Friday Bass Tab

   
Artist:Grinspoon
Song:Black Friday
>From "pushing the buttons EP"
Drop E to D
-p-=Pull Offs
Intro/Verse(Verse is cut shorter)- Distrotion pedal needed to play
G:-----------------------------------------------------|
D:-----------------------------------------------------|
A:-----------------------------------------------------|
D:--3p0-0--3p0-00--3p0-3p0-00--3p0-3p0-00--3p0-3-4-4-1-|
the last is either the 5th fret or the first,but i think first fits
better.
Part just after intro-
G:-----------------------------------------------------|
D:-----------------------------------------------------|
A:-8-8-8-8-8-8-8-8-8-8-8-8-8-8-8-8---------------------|
D:-------------------------------8---------------------|
This part repeats 4 times i think
Chorus-Not really sure,but i think it'll do, THis line mainly follows
the guitar
G:-----------------------------------------------------|
D:-----------------------------------------------------|
A:-----------------------------------------------------|
D:-0-12p11p0-10p9p0-8p7p0-6p5p0--0-3-------------------|
Outro-similiar to the chorus,but you could probaly get away with
playing the part after the intro.
G:-----------------------------------------------------|
D:-----------------------------------------------------|
A:-----------------------------------------------------|
D:-0-12p11p0-10p9p0-8p7p0-6p5p0--0-3-0-4---------------|
You can play this with out pulloffs if your not that good at them,
But there for the picky people out there,like me.
By Daniel Mortimer.(unplug182@hotmail.com)
Bassist For "Going No-Where"


[ Tab from: http://www.guitartabs.cc/tabs/g/grinspoon/black_friday_btab.html ]
Comments