Grinspoon - Balding Matters Chords & Tabs

 

Balding Matters Chords & Tabs

Grinspoon Chords & Tabs

Version: 1 Type: Tab 0 ratings
1 star 2 stars 3 stars 4 stars 5 stars
comments

Balding Matters Tab

-------------------------------------------------------------------------------
			     BALDING MATTERS - Grinspoon	
-------------------------------------------------------------------------------
Tabbed by: Kylie Barling	
Email: rockchick963@hotmail.com

Okay this is my first tab and it probably won't have the whole song tabbed but it's a
start.
It was just annoying me how many bass tabs there are for Grinspoon's album Guide To
Better Living when almost/the whole album is drop D and the guitar plays about the
same thing as the bass mostly!!!!!

Tuning: Drop D 
/ = slide

Intro/Verse
e|----------------------------------------------------|
B|----------------------------------------------------|
G|----------------------------------------------------|
D|-0-3-5-0-3-5-0-3-5-0-3---0-3-5-0-3-5-5/10-10-10-10--|
A|-0-3-5-0-3-5-0-3-5-0-3---0-3-5-0-3-5-5/10-10-10-10--|
D|-0-3-5-0-3-5-0-3-5-0-3---0-3-5-0-3-5-5/10-10-10-10--|
[ Tab from: http://www.guitartabs.cc/tabs/g/grinspoon/balding_matters_tab.html ]
Chorus
e|----------------------------------------------------|
B|----------------------------------------------------|
G|----------------------------------------------------|
D|-12-12-12-10-10-10-10-12-12-12-10-------------------|
A|-12-12-12-10-10-10-10-12-12-12-10-------------------|
D|-12-12-12-10-10-10-10-12-12-12-10-------------------|

e|----------------------------------------------------|
B|----------------------------------------------------|
G|----------------------------------------------------|
D|-10-10-10-12-12-12-10-10-10-3-3-3-3-3-3-------------|
A|-10-10-10-12-12-12-10-10-10-3-3-3-3-3-3-------------|
D|-10-10-10-12-12-12-10-10-10-3-3-3-3-3-3-------------|

Interlude
e|----------------------------------------------------|
B|----------------------------------------------------|
G|----------------------------------------------------|
D|-0-----------------1----0---3-1-1-3-3-1-0-1-3-------|
A|-0-----------------1----0---3-1-1-3-3-1-0-1-3-------|
D|-0-----------------1----0---3-1-1-3-3-1-0-1-3-------|

Outro
e|----------------------------------------------------|
B|----------------------------------------------------|
G|----------------------------------------------------|
D|-3--7-5-0-------------------------------------------|
A|-3--7-5-0-------------------------------------------|
D|-3--7-5-0-------------------------------------------|

Just figure out the rhythm and number of times each section plays and that's an easy
but rockin' song learnt!!
Comments