Grimskunk - Rigpa Chords & Tabs

 

Rigpa Chords & Tabs

Grimskunk Chords & Tabs

Version: 1 Type: Bass Tab 0 ratings
1 star 2 stars 3 stars 4 stars 5 stars
comments

Rigpa Bass Tab

   
---------------------------------
RIGPA / GRIM SKUNK
---------------------------------

Solo au début:
G---7----9---5-7----7-9-11-12-11-5-7------7--5---------¦
D----------------------------------------------------7-5---------|
A----------------------------------------------------------7--5--|
E----------------------------------------------------------------|

RIFF PRINCIPAL:
G-----------------------------------------------------|
D-----4----------4-----------4------------4--4-------*|
A--5-----3---5------3---5--------3---5----------3----*|
E-----------------------------------------------------|
[ Tab from: http://www.guitartabs.cc/tabs/g/grimskunk/rigpa_btab.html ]
Atata...
G---------------------------------|
D---7-7-7-5-5-5-4-4--------------*|
A----------------------6-6-5-----*|
E---------------------------------|

I lament for our sufering children...
G--------------------|
D-------------------*|
A-5-5-5-3-3-3-0-----*|
E--------------------|

Hi Hé Hé...
G-------------------------|
D--------4-4------4-4----*|
A---3-5------3-5---------*|
E-------------------------|

Quand ca crie Rigpa:
G-------------------------------|
D-7-7-7-5-5-5-4-4-4-2-2-2-------|
A-------------------------------|
E-------------------------------|

Refrain:
G-------------------------------|
D------4-5-7-5-4-4-4-----------*|
A-5-6----------------6-6-5-----*|
E-------------------------------|






Comments