Grimskunk - La Vache Chords & Tabs

 

La Vache Chords & Tabs

Grimskunk Chords & Tabs

Version: 1 Type: Bass Tab 0 ratings
1 star 2 stars 3 stars 4 stars 5 stars
comments

La Vache Bass Tab

-------------------------------
la vache / grimskunk
-------------------------------

Intro:
G  -----------------------------------------------------------------|
D  -----------------------------------------------------------------|  
A  --0-0--2-3-2-0-----0-0--2-3-2-0-----0-0--2-3-2-0-----0-0--2-3-2--|
E  ----------------1----------------3----------------1--------------|

2 fois
G  -----------------------------------------------------------|
D  -----------------------------------------------------------|
A  ------------2-3--2-3-3-3-3-2----------------3-3-3-3-2-2----|
E  --3-5-5-5-5------------------1--5-5-5-5-3-1-------------3--|
[ Tab from: http://www.guitartabs.cc/tabs/g/grimskunk/la_vache_btab.html ]
G  -----------------------------------------------------------|
D  --------------------------------------------3-3-3-2-2-0----|
A  ----------2-3--2-3-3-3-3-2------5-5-5-5-3-2-------------3--|
E  3-5-5-5-5------------------1-------------------------------|

G  -----------------------------------------------------------|
D  -------------------3-3-2-2-0-0--------------3-3-3-2-2-0----|
A  ------------2-3--3--------------5-5-5-5-3-2-------------3--|
E  --3-5-5-5-5------------------------------------------------|

G  -----------------------------------------------------------|
D  -----------------------------------------------------------|
A  ------------2-3--2-3-3-3-3-2----------------3-3-3-3-2-2----|
E  --3-5-5-5-5------------------1--5-5-5-5-3-1-------------3--|

G  ----------------------------------------------------------|
D  ------------2-3----------------------------3-3-3-2-2-0----|
A  --3-5-5-5-5-----2-3-3-3-3-2----5-5-5-5-3-2-------------3--|
E  ----------------------------1-----------------------------|




Comments