Grima Mike - Leery Chords & Tabs

 

Leery Chords & Tabs

Grima Mike Chords & Tabs

Version: 1 Type: Tab 0 ratings
1 star 2 stars 3 stars 4 stars 5 stars
comments

Leery Tab

Sweet song, all instrumental.  Here's the guitar line he plays on the acoustic.  The volume fades in and out.

E|---------------------------------|
B|-------0-------0-------0-------0-|
G|-------4-------4-------4-------4-|
D|-0---0---0---0---0---0---0---0---|
A|---2-------2-------2-------2-----|
E|---------------------------------|

E|---------------------------------|
B|-------0-------0-------0-------0-|
G|-------4-------4-------4-------4-|
D|-0---0---0---0---0---0---0---0---|
A|---3-------3-------3-------3-----|
E|---------------------------------|
[ Tab from: http://www.guitartabs.cc/tabs/g/grima_mike/leery_tab.html ]
E|---------------------------------|
B|-------0-------0-------0-------0-|
G|-------4-------4-------4-------4-|
D|-0---0---0---0---0---0---0---0---|
A|---2-------2-------2-------2-----|
E|---------------------------------|

E|---------------------------------|
B|-------0-------0-------0-------0-|
G|-------4-------4-------4-------4-|
D|-0---0---0---0---0---0---0---0---|
A|---3-------3-------3-------3-----|
E|---------------------------------|

E|---------------------------------||
B|-------0-------0-------0-------0-||
G|-------4-------4-------4-------4-||
D|-0---0---0---0---0---0---0---0---||
A|---4-------4-------4-------4-----||
E|---------------------------------||
Comments