Grim Skunk - Martha Chords & Tabs

 

Martha Chords & Tabs

Grim Skunk Chords & Tabs

Version: 1 Type: Bass Tab 0 ratings
1 star 2 stars 3 stars 4 stars 5 stars
comments

Martha Bass Tab

   
song: Martha
band: Grimskunk
album: grimskunk
tabbed by: Carlos Pino
[ Tab from: http://www.guitartabs.cc/tabs/g/grim_skunk/martha_btab.html ]
g]-----------------------------------------------------------
d]5-5-------------------------------------5-5------------------|
a]------7-7------7-7-5-5-----------------------7-7-------7-7-|
e]-----------8-8-------------7-7-3-3-7-7-----------8-8-----|

g]---------------------
d]---------------------
a]-6-6-6-5-5-4-3-
e]----------------------

cest juste le debut !


Comments