Grim Skunk - Le Gouvernement Songe Chords & Tabs

 

Le Gouvernement Songe Chords & Tabs

Grim Skunk Chords & Tabs

Version: 1 Type: Bass Tab 0 ratings
1 star 2 stars 3 stars 4 stars 5 stars
comments

Le Gouvernement Songe Bass Tab

   
song: Le gouvernement songe
band: Grimskunk
album: Meltdown
tabbed by: Carlos Pino


intro
g---------------------------------
d--------------------------------|
a-7-7-7-------------7-7-7----|
e----------8--8--8-----------7-|

g----------------------------
d---------------------------|
a-7-7-7------------5-5--|
e----------8--8--8--------|


g----------------------------------------------------
d--------------------------------------------------|
a-7-7-7-10-10-10-7-7-7-----------------------
e-----------8--8--8-----------7-7-7-7-7-7-7-7-|


g----------------------------|
d--------------------------|
a-7-7------5-5-5-5-5--|
e------7-7--------------|


g-----------------------------------------------------------------------|
d------------------------------------------------------------------------|
a-10-10-10-10-10-5-5-5-5-5-5-7-7-7-------------7-7-7-----|
e--------------------------------------------------8--8--8----------7-|
[ Tab from: http://www.guitartabs.cc/tabs/g/grim_skunk/le_gouvernement_songe_btab.html ]
g--------------------------------------------------
d-------------------------------------------------|
a-7------7-----8--8--7-------10--5---8--8--|
e-----8-----5--------------8---------------------|

g-----------------------------------------------------------------------------|
d------------------------------------------------------------------------------
a-10-10-10-10-10-5-5-5-5-5-5-7-7-7--------------7-7-7-----------|
e--------------------------------------------------8--8--8----------7-6-5-|


g----------------------------------|
d----------------------------------|
a--------------------------5-5-5-|
e-0-0-3-5-5-5-0-0-3----------|



g----------------------------------------
d----------------------------------------|
a-2-2-2-2-2-2-3-3-3-3-3-3-0-0-|
e-----------------------------------------

g---------|
d----------|
a-2-2-3-|

g------------------------------------|
d------------------------------------|
a-2-2-2-2-2-2-3-3-3-3-3-3-0-|
e-------------------------------------
 
g---
d---|
a---|
e-0-|

Comments