Grieve Sandy - Track Chords & Tabs

 

Track Chords & Tabs

Grieve Sandy Chords & Tabs

Version: 2 Type: Tab 0 ratings
1 star 2 stars 3 stars 4 stars 5 stars
comments

Track Tab

SONG1A.TAB

This TAB transcription was created using TAB MASTER version 1.0
If you enjoy using this program, please consider telling the author
about it: Ofir Zwebner, e-mail: ofirz1@ccsg.tau.ac.il
                    snail-mail: Ehoud 10, Tel Aviv, 69936, Israel

This program is freeware, but it took me some work to make it, so
your financial contribution is welcome.

--------------------------------------------------------------------




e:---------------------------------------------------------|
B:---------------------------------------------------------|
G:---------------------------------------------------------|
D:---------------------------------------------------------|
A:--5-----5---5---6-----6---6---5-----5---5---6-----6---6--|
E:3---3-3---3---3---3-3---3---3---3-3---3---3---3-3---3----|




[ Tab from: http://www.guitartabs.cc/tabs/g/grieve_sandy/track_tab_ver_2.html ]
e:---------------------------------------------------------|
B:---------------------------------------------------------|
G:---------------------------------------------------------|
D:---------------------------------------------------------|
A:---7-----7---7---8-----8---8---5-----5---5---6-----6---6-|
E:-5---5-5---5---5---5-5---5---3---3-3---3---3---3-3---3---|




     { repeat this section twice               }
e:---------------------------------------------------------|
B:---------------------------------------------------------|
G:---------------------------------------------------------|
D:----5-6-5-5-6-5-6-3-4-3-3-4-3-4-5-6-5-5-6-5-6------------|
A:----5-6-5-5-6-5-6-3-4-3-3-4-3-4-5-6-5-5-6-5-6------------|
E:----3-3-3-3-3-3-3-1-1-1-1-1-1-1-3-3-3-3-3-3-3------------|
      (   x2      )

                                    

     solo
e:---13--11--10--8-6-5-3-1-1h3p1h3p1|
B:----------------------------------|
G:-----11--11--11-6-6-6-------------|
D:----------------------------------|
A:----------------------------------|
E:----------------------------------|

    after the solo repeat the chord riff once and then finish on the first riff 
    (playing 35335353633636 and then gently play the chord on the third fret) 
Comments