Grieg - In The Hall Of The Mountain King Chords & Tabs

 

In The Hall Of The Mountain King Chords & Tabs

Grieg Chords & Tabs

Version: 3 Type: Tab 0 ratings
1 star 2 stars 3 stars 4 stars 5 stars
comments

In The Hall Of The Mountain King Tab

Hey guys, this is my first tab, and i know that it is 100% correct. It is an easier 
of this song, so it is pretty easy to play it.

Song: Hall of the Mountain King
Artist: Grieg

Standard tuning

e:-----------------------------------------|
b:-----------------------------------------|
g:-----------------------------------------|
d:---------0--2-----2--1-----2--0-----0----|
a:0--2--3--------3--------2----------------|
E:-----------------------------------------|

e:-----------------------------------------|
b:-----------------------------------------|
g:---------------------2--0-----------0----|
d:---------0--2-----2--------2-----2-------|
a:0--2--3--------3--------------3----------|
E:-----------------------------------------|            Repeat x2

~~~~~~~~~~~~~~~~~~~~~~~~~~~~~~~~~~~~~~~~~~~~~~~~~~~~~~~~~~~~~~~~~~~~

e:-----------------------------------------|
b:------------0----0--1-----1--0-----0-----|
g:------1--2-----1-------2--------1--------|
d:2--4-------------------------------------|
a:-----------------------------------------|
E:-----------------------------------------|
[ Tab from: http://www.guitartabs.cc/tabs/g/grieg/in_the_hall_of_the_mountain_king_tab_ver_3.html ]
e:-----------------------------------------|
b:------------0----0--1-----1--0-----------|
g:------1--2-----1-------2-----------------|
d:2--4-------------------------------------|
a:-----------------------------------------|
E:-----------------------------------------|          Repeat x2

~~~~~~~~~~~~~~~~~~~~~~~~~~~~~~~~~~~~~~~~~~~~~~~~~~~~~~~~~~~~~~~~~~~~~~~

e:------------0-----0--------------------------------|
b:---0--1--3-----1-----4--0--4--3-----3-----0--1--3--|
g:2--------------------------------3-----2-----------|
d:---------------------------------------------------|
a:---------------------------------------------------|
E:---------------------------------------------------|

e:0-----0--5--3--0-----0--3----------------|
b:---1--------------1----------------------|
g:-----------------------------------------|
d:-----------------------------------------|
a:-----------------------------------------|
E:-----------------------------------------|

e:------------0-----0--------------------------------|
b:---0--1--3-----1-----4--0--4--3-----3-----0--1--3--|
g:2--------------------------------3-----2-----------|
d:---------------------------------------------------|
a:---------------------------------------------------|
E:---------------------------------------------------|

e:--------------------------------|
b:1--0----------------------------|
g:------2-----2-------------------|
d:---------1----------------------|
a:--------------------------------|
E:--------------------------------|

thats it! have fun...its easy
Comments