Greyhoundz - Leech Chords & Tabs

 

Leech Chords & Tabs

Greyhoundz Chords & Tabs

Version: 1 Type: Tab 0 ratings
1 star 2 stars 3 stars 4 stars 5 stars
comments

Leech Tab

song:leech
album:seven corners of your game
artist:greyhoundz
tabbed by:leander m.
info:any comment,sugestion text/call 09193216020 e-mail leander_85@yahoo.com
I work it on drop D
 
Intro:()natural harmonics      guitarII
E|---------------------------||-------|
B|---------------------------||-------|
G|----------------------(9)--||--(9)--|
D|--9-12-9-10-9-12-9-10-12---||-------|
A|--9-12-9-10-9-12-9-10-12---||-------|
D|--9-12-9-10-9-12-9-10-12---||-------|
[ Tab from: http://www.guitartabs.cc/tabs/g/greyhoundz/leech_tab.html ]
E|----------------------------    -------------------------------
B|----------------------------    -------------------------------
G|----------------------------(2x)-------------------------------(2x) 
D|----------------------------    ---------------12/-------------
A|--2-2-2-2-5-2--2-2-2-2-3-2--    --2-2-2-2-5-2--10/--3-2-2-3-2--
D|--0-0-0-0-0-0--0-0-0-0-0-0--    --0-0-0-0-0-0---0/--0-0-0-0-0--

chorus:
E|------------|
B|------------|
G|------------|
D|--9~~--7~~--|
A|--7~~--5~~--|
D|--0~~--0~~--|

bridge:
E|-----------------------|
B|-----------------------|
G|-----------------------|
D|----10---12---10---12--|
A|----10---12---10---12--|
D|--9-10-9-12-9-10-9-12--|
    .    .    .    .
tabbed by:leander m.
                                        end
Comments