Greyhoundz - Hole Chords & Tabs

 

Hole Chords & Tabs

Greyhoundz Chords & Tabs

Version: 1 Type: Tab 0 ratings
1 star 2 stars 3 stars 4 stars 5 stars
comments

Hole Tab

info:greyhoundz of of the rap metal piss of crap bands here in the philippines
I think this song is the soundtrack of the ring

song:hole
artist:greyhoundz
tab by:leander m.
[ Tab from: http://www.guitartabs.cc/tabs/g/greyhoundz/hole_tab.html ]
intro/chorus riff:
D|-----------       ------------------------------------------------|
A|-----------       ------------------------------------------------|
F|----4------ (16x) ------------------------------------------------|
C|----2------       ------------------------------------------------|
G|-----------       ------------------------------------------------|
D|--0---0-1--       --0h1-0h1-0h1--0-1-0-1-0-1-0-1-0-1-0-1-0-1-0-1--| 
    .   .                          .   .   .   .   .   .   .   .
stanza:
D|--<14^16>then press the pitch--|
A|-------------------------------|
F|-------------------------------|
C|-------------------------------|
G|-------------------------------|
D|-------------------------------|

refrain:
numb & cold
weary & cold
a stolen soul
now in another pole

bridge:first guitar then guitar II(this riff same as guitar I)
D|--7-7-7--------------------------------------------------|
A|---------------------------------------------------------|
F|--------7-7-7-------------------7-7-7--------------------|
C|--------------7-7-7-------7-7-7-------7-7-7--------------|
G|--------------------7-7-7-------------------7-7-7-----7--|
D|--------------------------------------------------7-7----|

then pause in a point of a seconds
repeat chorus
stanza riff(fading)

submited by:leander m.
             the_end
            C0R@_T!r@
Comments