Greyhoundz - Hinahanap Chords & Tabs

 

Hinahanap Chords & Tabs

Greyhoundz Chords & Tabs

Version: 1 Type: Tab 0 ratings
1 star 2 stars 3 stars 4 stars 5 stars
comments

Hinahanap Tab

   
         
              "HINAHANAP"BY GREYHOUNDZ                
              transcribed by:freongang
         visit me at:freongang_81@yahoo.com      
              freongang_08@yahoo.com  

dropped D 
intro:               X4
D|------------  ---------------------|
A|------------  ---------------------|
F|------------  ---------------------|
C|-6/4-5-4----  --6-6-3-9-5-6--------|
G|-4/2-3-2----  --4-4-1-7-3-4--------|
D|------------  ---------------------|

D|-0-6-7- --6-5- -5-4- --8-4- -5-4- -8-4--|
A|------- ------ ----- ------ ----- ------|
F|------- ------ ----- ------ ----- ------|
C|------- ------ ----- ------ ----- ------|
G|------- ------ ----- ------ ----- ------|
D|------- ------ ----- ------ ----- ------|
[ Tab from: http://www.guitartabs.cc/tabs/g/greyhoundz/hinahanap_tab.html ]
 Sa sikat ng pag-iisip... (as many times)
D|-----------------------------------|
A|-----------------------------------|
F|-----------------------------------|
C|-----------------------------------|
G|-----------------------------------|
D|-5h4-5-5------5h4-5-6-4-5----------|

D|-0-6-7- --6-5- -5-4- --8-4- -5-4- -8-4--|
A|------- ------ ----- ------ ----- ------|
F|------- ------ ----- ------ ----- ------|
C|------- ------ ----- ------ ----- ------|
G|------- ------ ----- ------ ----- ------|
D|------- ------ ----- ------ ----- ------|

Hinahanap ka sa tuwing ako'y lumumuha... X4
D|-----------------------------------|
A|-----------------------------------|
F|-----------------------------------|
C|-7/6--7-7-7-7-7-7-7-7--------------|
G|-7/6--7-7-7-7-7-7-7-7--------------|
D|-5/4--5-5-5-5-5-5-5-5--------------|

Outro:
D|------7----8-----------------------|
A|--------5--------------------------|
F|-----------------------------------|
C|--------------------1----1----1----|
G|--------------------1----1----1----|
D|------------------0----0----0------|
       Just follow the sequence...
           <<<>>>
Comments