Grey Daze - Drag Chords & Tabs

 

Drag Chords & Tabs

Grey Daze Chords & Tabs

Version: 1 Type: Tab 0 ratings
1 star 2 stars 3 stars 4 stars 5 stars
comments

Drag Tab

Artist: 	Gray Daze
Song:		Drag
Tabbed by:	Dolphin (dolphins_mail@mail.ru)



Bass part (play whole song, except chorus and solo)
|-------------------------|
|-------------------------|
|-------------------------|
|-------------------------|
|-0-0-0-8-8-8-5-5-5-5-5-5-|
|-------------------------|

Guitar part (comes in 0:06; played along with the bass part)
|---8------|--------8-------------|
|-----10---|---10-----10---10-----|
|--------7-|------7------7----7---|
|-7--------|-7------------------7-|
|----------|----------------------|
|----------|----------------------|

Chorus:
|---------------------------------|
|---------------------------------|
|-------10-10-10-7-7-7------------|
|-7-7-7-10-10-10-7-7-7------------|
|-7-7-7-8--8--8--5-5-5------------|
|-5-5-5---------------------------|

Solo (played at 3:11)
|-------------------------8-8-8-8-8-8-8-8---------------------------|
|-10-10-10-10-10-10-10-10-------------------------------------------|
|-----------------------------------------7-7-7-7-7-7-6p7-7-7-7-7-7-|
|-------------------------------------------------------------------|
|-------------------------------------------------------------------|
|-------------------------------------------------------------------|
[ Tab from: http://www.guitartabs.cc/tabs/g/grey_daze/drag_tab.html ]
|-------------------------8-8-8-8-8-8-8-8------------------|
|-10-10-10-10-10-10-10-10----------------------------------|
|-----------------------------------------7--7--7--7--7--7-|
|----------------------------------------------------------|
|----------------------------------------------------------|
|----------------------------------------------------------|

|-------------------------8-8-8-8-8-8-8-8---------------------------|
|-10-10-10-10-10-10-10-10-------------------------------------------|
|-----------------------------------------7-7-7-7-7-7-6p7-7-7-7-7-7-|
|-------------------------------------------------------------------|
|-------------------------------------------------------------------|
|-------------------------------------------------------------------|

|-------------------------8-8-8-8-8-8-8-8-13-13-13-13-13-13-13-13-13|
|-10-10-10-10-10-10-10-10-------------------------------------------|
|-------------------------------------------------------------------|
|-------------------------------------------------------------------|
|-------------------------------------------------------------------|
|-------------------------------------------------------------------|

|-13s0~-|
|-------|
|-------|
|-------|
|-------|
|-------|
((means, slide from 13 to 0 and let ring))


Songs finishes with bass-guitar playing this:

|-------|
|-------|
|-------|
|-------|
|-0-0-0-|
|-------|
((repeat till end))

...and guitar playing this one:
|-------|
|-------|
|---7---|
|---7---|
|---5---|
|-------|
((last time - let ring))



Hope, it helps.
Regards, Dolphin (dolphins_mail@mail.ru)
Comments