Grey Daze - B12 Chords & Tabs

 

B12 Chords & Tabs

Grey Daze Chords & Tabs

Version: 1 Type: Bass Tab

B12 Bass Tab

-------------------------------------------------------------------------------
			     B12 - Grey Daze
-------------------------------------------------------------------------------

Really cool song by a band who's lead singer went on to become Linkin park's lead.
Better to play most of it in slap, except the prechorus, chorus and interlude. Im
posative this is right, but if you do find a fault then email me at nexus1101@hotmail.co.uk

Tuning: Standard GDAE
h = Hold note
\ = slide up

Intro and verses
G|------------------|
D|-----4------------|
A|-2-2------4-----5-|
E|------2-2---3-3---|
[ Tab from: http://www.guitartabs.cc/tabs/g/grey_daze/b12_btab.html ]
Pre-chorus
G|--------------------------------|
D|--------------------------------|
A|-2-2-2-2------------------------|
E|--------2-2-2-2-3-3-3-3-0-0-0-0-|

Chorus (same as pre chorus but with pauses, listen to it to get the rhythm)
G|-----------------|
D|-----------------|
A|-2-2-------------|
E|----2-2-2-3h--0h-|

Interlude at 1:57
G|--------------------------------------------------------------|
D|-2-2-2-2-2-2-2-2-1-1-1-1-1-1-1-1-0-0-0-0-0-0-0-0--------------|
A|------------------------------------------------4-4-4-4-4-4-4-|
E|--------------------------------------------------------------|

At 1:17, during a verse, the bass differs a little. Its not exactly a solo but its different
G|--------------------|
D|-----4--------------|
A|-2-2------4--5-6-7\-|
E|------2-2-----------|


===============================================================================