Gretchen - Zion Chords & Tabs

 

Zion Chords & Tabs

Gretchen Chords & Tabs

Version: 1 Type: Tab

Zion Tab

   
Tuning: Drop D
h = hammer-on
p = pull-off
  = slide down

Intro and Verse- (hyper-speed picking):
e|----------------------------------------------------------------------------------------|
B|----------------------------------------------------------------------------------------|
G|----------------------------------------------------------------------------------------|
D|----------------------------------------------------------------------------------------|
A|-------------------------------------------------------------------------------------6--|
D|---10--h12--0--0--0--0--0---10--10--h12--0--0--10--h12--0--0--0--0----------------------|


Chorus:
e|------------------------------------------------------------------|
B|------------------------------------------------------------------|
G|---7------5------------------7-----5------------------------------|
D|---7------5-----3----1------7-----5-----1--1--1--1--3--3--3--3----|
A|---5------3-----3----1------5-----3-----1--1--1--1--3--3--3--3----|
D|-----------------3----1------------------1--1--1--1---3--3--3--3--|
[color=black] ------------------------------------------------------|/color](listen for the changes here)
[ Tab from: http://www.guitartabs.cc/tabs/g/gretchen/zion_tab.html ]
e|---------------------------------------------------------------------------------|
B|---------------------------------------------------------------------------------|
G|---7------5------------------7-----5---------------------------------------------|
D|---7------5-----3----1------7-----5----------------------------------------------|
A|---5------3-----3----1------5-----3----------------------------------------------|
D|-----------------3----1-------------------3--0-0-0--0-3--0-0-0-0--3--0-0-0--0-3--|

Chorus tag after solo:
e|------------------------------------------------------------|
B|------------------------------------------------------------|
G|---7------5------------------7-----5------------------------|
D|---7------5-----3----1------7-----5-------------------------|
A|---5------3-----3----1------5-----3------0--0--0--3--3--3---|
D|-----------------3----1-------------------0--0--0--3--3--3--|

End tag:
e|---------------------------------------------------------------------------------|
B|---------------------------------------------------------------------------------|
G|---------------------------------------------------------------------------------|
D|---------------------------------------------------------------------------------|
A|--9--h10--p9--------------9--h10--p9--------------9--h10--p9---------------------|
D|------------------10--10-------------------10--10--------------------10--10--12--|