Gregory - The Kettle Chords & Tabs

 

The Kettle Chords & Tabs

Gregory Chords & Tabs

Version: 1 Type: Tab 0 ratings
1 star 2 stars 3 stars 4 stars 5 stars
comments

The Kettle Tab

the kettle
written by gregory

tabbed by joshua

note:  normal tuning [eadgbe]

intro

--------------------------------
--------------------------------
--------------------------------
22--22--3-3-3-3-22--22--0-0-0-1-
--22--22-3-3-3-3--22--22-0-0-0-1
--------------------------------

--------------------------------
--------------------------------
--------------------------------
22--22--3-3-3-3-22--22--0-0-0-3-
--22--22-3-3-3-3--22--22-0-0-0-3
--------------------------------

verse
[ Tab from: http://www.guitartabs.cc/tabs/g/gregory/the_kettle_tab.html ]
--------------------------------
--------------------------------
--------------------------------
--0---0---0---0---0---0---0---0-
22--22--11--11--22--22--11--11--
--------------------------------

--------------------------------
--------------------------------
--------------------------------
--0---0---0---0---0---0---0---0-
22--22--11--11--22--22--11--11--
22--22--11--11--22--22--11--11--

chorus

--------------------------------
--------------------------------
--0---0---0---0-----------------
--0---0---0---0-----------------
66--55--22-3-3------------------
66--55--22-3-3------------------

--------------------------------
--------------------------------
--------------------------------
--0---0---0---0-----------------
66--55--22-3-3------------------
--------------------------------
Comments