Greg Wood - Overconfident And Underinsured Chords & Tabs

 

Overconfident And Underinsured Chords & Tabs

Greg Wood Chords & Tabs

Version: 1 Type: Tab 0 ratings
1 star 2 stars 3 stars 4 stars 5 stars
comments

Overconfident And Underinsured Tab

   
-------------------------------------------------------------------------------
	      OVERCONFIDENT AND UNDER-INSURED - Greg Wood
-------------------------------------------------------------------------------
www.gregwood.net

By: Greg Wood

								p = pull-off to next note
								h = hammered-on
								x = muted string


Head:					after 4th X:

e|---0---0---0---0---3---x---3---x------...-----------------|
B|---3---1---3---1---x---3---x---3------...---5-----5-------|
G|---0---0---0---0---0---0---0---0------...---x-------------|
D|---2---2---2---2---0---0---0---0------...---x-------------|
A|---0---0---3---3---2---2---2---2------...---3-----3--2----|
E|-------------------3---3---3---3------...---------------0-|


Sweep-picking:

e|-----------------------------------------------------------------------------------
B|----------------------------0------------------------------------------------------
G|----------4------------4p-0---------0---------0----------4------------4p-2p-0------
D|--------2---2--------0------------2---2-----4----------2---2--------0--------------
A|---0--0-----0---2--2---------3--3-----3---5-------0--0-----0---2--2----------------
E|-----------------------------------------------------------------------------------

e|-----------0------|
B|-----------0------|
G|-----------2------|
D|-----------0------|
A|-----------0------|
E|--3h---3---3------|


Verse (Chords, not strum patterns - listen for strum patterns):

e|----------------3------------------0---------|
B|----0---0---0---3---0---0----------0---------|
G|----4---4---4---0---4---4----------2---------|
D|----2---0---2---2---2---0----------0---------|
A|----0---2---3---3---0---2---2p-0---0---------|
E|-----------------------------------3---------|


CHORUS - (first part 2X):
[ Tab from: http://www.guitartabs.cc/tabs/g/greg_wood/overconfident_and_underinsured_tab.html ]
e|------------------------0---------3--------3--------3--------------------------
B|----------------0-------0---------3--------3--------3--------------------------
G|----------------0-------0---------0--------0--------0---------------4---5---7--
D|------4------4--4-------2------2-----------0--------0---0---0---0--------------
A|---2------5-------------2---3--------0--0--0--0--0--0---0---0---0---2---3---5--
E|--------------------0----------------2--2-----3--3-----------------------------




e|------------------------0---------3--------3--------3-------------------------------|
B|----------------0-------0---------3--------3--------3-----------------4---4-4-4-4---|
G|----------------0-------0---------0--------0--------0-----------------0---0-0-0-0---|
D|------4------4--4-------2------2-----------0--------0---0---0-0---0---0---0-0-0-0---|
A|---2------5-------------2---3--------0--0--0--0--0--0---0---0-0---0---2---2-2-2-2---|
E|--------------------0----------------2--2-----3--3----------------------------------|


CHORUS - (second part, chords only - strum patterns not included):

e|---0-----0-----0-----x-----------0-----0-----0-----1-----0-----x-----1-----1-----|
B|---3-----5-----7-----8-----8--7--0-----3-----3-----1-----x-----3-----1-----1-----|
G|---0-----0-----0-----0-----0--0--0-----0-----0-----3-----3-----3-----3-----2-----|
D|---0-----0-----x-----x-----0--0--0-----0-----0-----3-----3-----3-----3-----3-----|
A|---3-----5-----7-----7-----7--7--0-----3-----2-----1-----1-----1-----1-----1-----|
E|---------------0-----0-----0--0--------------------------------------------------|


OUTRO - (chords only - strum patterns not included):

e|----------------0-----0-----0-----0---------0-----0-----1-----1------|
B|----5----7------0-----3-----0-----1---------3-----3-----1-----3------|
G|----------------0-----0-----0-----2---------0-----0-----3-----2------|
D|----------------2-----0-----2-----2---------0-----0-----3-----0------|
A|----3----5------2-----3-----2-----0----2----3-----2-----1-----0------|
E|----------------0-----------0----------------------------------------|

===============================================================================
Comments