Greg Kihn Band - Break Up Song Chords & Tabs

 

Break Up Song Chords & Tabs

Greg Kihn Band Chords & Tabs

Version: 2 Type: Bass Tab 0 ratings
1 star 2 stars 3 stars 4 stars 5 stars
comments

Break Up Song Bass Tab

   
                           BASSLINE FOR BREAK UP SONG
                          As recorded by Greg Kihn Band

Transcribed by Michael Raisey

   Am                 F                 G                 Am
||------------------|-----------------|-----------------|-------------------||
||o-----------------|-----------------|-----------------|-----------2------o||
||o-0-0-0-0-0-0-0-0-|-----------------|-----------------|-0-0-0-0-3---3-0--o||
||------------------|-1-1-1-1-1-1-1-1-|-3-3-3-3-3-3-3-3-|-------------------||
  Intro

                                                                       X 4
||------------------|-----------------|-----------------|-------------------||
||o-----------------|-----------------|-----------------|------------------o||
||0-0-0-0-0-0-0-0-0-|-----------------|-----------------|-0-0-0-0-0-0-0-0--o||
||------------------|-1-1-1-1-1-1-1-1-|-3-3-3-3-3-3-3-3-|-------------------||
  Verse
[ Tab from: http://www.guitartabs.cc/tabs/g/greg_kihn_band/break_up_song_btab_ver_2.html ]
   F            C           G           Dm
||------------|-----------|-----------|---------|
||o-----------|-----------|-----------|---------|
||o-----------|-3--3------|-----------|-5--5----|
||--1--1------|-----------|-3--3------|---------|
  Chorus


  F              C               G                  G
|---------------|---------------|-----------------|-------------------||
|---------------|---------2-----|-----------------|------------------o||
|-------0-3-0---|-3--3--3---3-0-|-----------------|------------------o||
|-1--1--------3-|---------------|-3-3-3-3-3-3-3-3-|-3-3-3-3-3-3-3-3---||
  1  2  3 + 4 +   1  2  3 + 4 +

--------------------------------------------------------------------------------
Format:
Intro
Verse
Chorus
Verse
Chorus
Bridge   same as intro
Verse   (1/2 the length as the others)
Chorus
End   (I usually end it like the intro) end on Am
--------------------------------------------------------------------------------

******************************************************************************************
* This file was generated with Power Tab Editor - Get it at http://home.tct.net/~blarsen *
******************************************************************************************
Comments